Red Hot Chili Peppers - Pea Chords & Tabs

 

Pea Chords & Tabs

Red Hot Chili Peppers Chords & Tabs

Version: 2 Type: Bass Tab 0 ratings
1 star 2 stars 3 stars 4 stars 5 stars
comments

Pea Bass Tab

#----------------------------------PLEASE NOTE---------------------------------#
#This file is the author's own work and represents their interpretation of the #
#song. You may only use this file for private study, scholarship, or research. #
#------------------------------------------------------------------------------##
"Pea" (Flea)
Red Hot Chili Peppers
_One Hot Minute_

done by:  lam@lava.net
(Please email me with comments, suggestions, corrections, etc...)


tune down 1 1/2 step


   I'm a little pea...             I'm a teeny tiny...
------------------------------------------------------------------
------------------------------------------------------------------
2x-22x-2------------------------2x-22x-2--------------------------
--------4x-44x-43x-33x-31x-11x-1--------4x-44x-43x-33x-31x-11x-1--
[ Tab from: http://www.guitartabs.cc/tabs/r/red_hot_chili_peppers/pea_btab_ver_2.html ]
        I am nothing...                And I'm a pacifist...
------------------------------------------------------------------
------------------------------------------------------------------
2x-22x-2------------------------2x-22x-2--------------------------
--------4x-44x-43x-33x-31x-11x-1--------4x-44x-43x-33x-31x-11x-1--

       Oh yeah I'm small...                 Oh yeah I'm small...
------------------------------------------------------------------
----------2x-22x-2-----------------------------2x-22x-2-----------
3/4x-44x-4--------2x-22x-222x-2x-2x--234x-44x-4--------2x-22x-222x
------------------------------------4-----------------------------

          Fuck you asshole...         You're big and tough...
------------------------------------------------------------------
------------------------------------------------------------------
2x-2x-21x-11x-1-----21x-11x-1------1x-11x-1-----21x-11x-1----22x--
---------------2x-24---------2x-240--------2x-24---------4x-4-----


------------------------------------------------------------------
------------------------------------------------------------------
11-1-111-1----22x-1-1111111----22221-1111111----22221-------------
----------4x-4-------------4444-------------4444------------------


Enjoy!

Geoffrey Lam
lam@lava.net
Comments