Red Hot Chili Peppers - Parallel Universe Chords & Tabs

 

Parallel Universe Chords & Tabs

Red Hot Chili Peppers Chords & Tabs

Version: 7 Type: Tab 0 ratings
1 star 2 stars 3 stars 4 stars 5 stars
comments

Parallel Universe Tab

   
Song: Parallel Universe
Artist: Red Hot Chili Peppers
tab by Nano
e-mail: mariachi_boo@yahoo.com.ar

Intro with Riff 1

with riff 1
Deep inside of a parallel universe 
It's getting harder and harder 
To tell what came first 

Under water where thoughts can breathe Easily

Far away you were made in a sea 
Just like me 

Chorus:
C5               D#5          G5
  Christ I'm a sidewinder I'm a 
California King
C5              D#5          G5
  I swear it's everywhere 
It's everything

Staring straight up into the sky 
Oh my my a solar system that fits 
In your eye Microcosm 

You could die but your never dead spider web 
Take a look at the stars in 
Your head fields of space kid 

Chorus x 2

riff 2 x8

Psychic changes are born in your heart
Entertain 
A nervous breakthrough that makes us the
same 
Bless your heart girl 

Kill the pressure it's raining on 
Salty Cheeks 
When you hear the beloved song 
I am with you 
                 
Chorus x 2

Outro with riff 1


Riff 1:
[ Tab from: http://www.guitartabs.cc/tabs/r/red_hot_chili_peppers/parallel_universe_tab_ver_7.html ]
e:------------------|-----------------|-----------------|-----------------|
B:------------------|-----------------|-----------------|-----------------|
G:------------------|-----------------|-----------------|-----------------|
D:------------------|-----------------|-----------------|-----------------|
A:--3-3-3-3-3-3-3-3-|-3-3-3-3-3-3-3-3-|-1-1-1-1-1-1-1-1-|-1-1-1-1-1-1-1-1-|
E:------------------|-----------------|-----------------|-----------------|

e:------------------|-----------------|-----------------|-----------------|
B:------------------|-----------------|-----------------|-----------------|
G:------------------|-----------------|-0-0-0-0-0-0-0-0-|-0-0-0-0---------|
D:--0-0-0-0-0-0-0-0-|-1-1-1-1-1-1-1-1-|-----------------|---------3-3-3-3-|
A:------------------|-----------------|-----------------|-----------------|
E:------------------|-----------------|-----------------|-----------------|

e:------------------|
B:------------------|
G:------------------|
D:--1-1-1-1-0-0-0-0-|
A:------------------|
E:------------------|

Riff 2

e:----------------------------|
B:----------------------------|
G:----------------------------|
D:----------------------------|
A:--3-3-3---------------------|
E:---------3-3-3-4-4-4-1-1-1--|

Chords:

     EADGBe
C5:  x355xx
D#5: x688xx
G5:  355xxx
Comments