Red Hot Chili Peppers - Parallel Universe Chords & Tabs

 

Parallel Universe Chords & Tabs

Red Hot Chili Peppers Chords & Tabs

Version: 5 Type: Bass Tab 0 ratings
1 star 2 stars 3 stars 4 stars 5 stars
comments

Parallel Universe Bass Tab

(intro) >bridge 1
G|------------------------------------------------12(x4)-10(x4)---------------|
D|xxxxxxxx-10(x20)-8(x15)-12(x10)-13(x10)-----------------------13(x4)-12(x4)-
A|----------------------------------------10(x12)-----------------------------|
E|----------------------------------------------------------------------------|

G|--------------------------------------12(x4)-10(x4)------------------------|
D|10(x20)-8(x15)-12(x10)-13(x10)----------------------13(x4)-12(x4)----------|
A|-------------------------------10(x12)-------------------------------------|
E|---------------------------------------------------------------------------|

G|----------------------------------------12(x4)-10(x4)----------------------|
D|-10(x20)-8(x15)-12(x10)-13(x10)-----------------------13(x4)-12(x4)--------|
A|--------------------------------10(x12)------------------------------------|
E|---------------------------------------------------------------------------|

 (0:50)>bridge 2
G|---------------------------------------------------------------------------|
D|10(x10)--------------13-13-13--------10(x10)-------------------------------|
A|--------10-10-11(x5)----------10(x15)--------10-10-10-10-11-11-11-11-11----|
E|---------------------------------------------------------------------------|

G|---------------------------------------------------------------------------|
D|13-13-13-13-13-------------------------------------------------------------|
A|---------------10(x15)-----------------------------------------------------|
E|---------------------------------------------------------------------------|

(interval)
G|----------------------------------------12(x4)-10(x4)----------------------|
D|-10(x20)-8(x15)-12(x10)-13(x10)--------------------------------------------|
A|--------------------------------10(x20)------------------------------------|
E|---------------------------------------------------------------------------|

G|---------------------------------------12(x4)-10(x4)-----------------------|
D|10(x20)-8(x15)-12(x10)-13(x10)-----------------------13(x4)-12(x4)---------|
A|-------------------------------10(x12)-------------------------------------|
E|---------------------------------------------------------------------------|

G|---------------------------------------------------------------------------|
D|-------10(x10)---------------------13-13-13--------10(x10)-----------------|
A|--------------10-10-11-11-11-11-11----------10(x15)--------10-10-10-10-11--|
E|---------------------------------------------------------------------------|
[ Tab from: http://www.guitartabs.cc/tabs/r/red_hot_chili_peppers/parallel_universe_btab_ver_5.html ]
G|---------------------------------------------------------------------------|
D|------------13-13-13-13-13---------10(x10)----------------------13-13-13---|
A|11-11-11-11----------------10(x15)---------10-10-11-11-11-11-11------------|
E|---------------------------------------------------------------------------|

G|---------------------------------------------------------------------------|
D|--------10(x10)----------------------13-13-13--------10(x10)---------------|
A|10(x15)---------10-10-11-11-11-11-11----------10(x15)--------10-10-10-10---|
E|---------------------------------------------------------------------------|

G|---------------------------------------------------------------------------|
D|---------------13-13-13-13-13----------------------------------------------|
A|11-11-11-11-11----------------10(x15)--------------------------------------|
E|---------------------------------------------------------------------------|

(2:06)
G|----------------------------------------------------------------------------|
D|-10-10-10-10-------------------------------10-10-10-10----------------------|
A|-------------10-10-10-10-11-11-11-11/8-8-8-------------10-10-10-10-11-11-11-|
E|----------------------------------------------------------------------------|

G|---------------------------------------------------------------------------|
D|---------10-10-10-10-------------------------------10-10-10-10-------------|
A|11/8-8-8-------------10-10-10-10-11-11-11-11/8-8-8-------------10-10-10-10-|
E|---------------------------------------------------------------------------|

G|----------------------------------------------------------------------------|
D|-------------------10-10-10-10-------------------------------10-10-10-10----|
A|-11-11-11-11/8-8-8-------------10-10-10-10-11-11-11-11/8-8-8-------------10-|
E|----------------------------------------------------------------------------|

G|----------------------------------------------------------------------------|
D|----------------------------10-10-10-10----------------------------10-10-10-|
A|-10-10-10-11-11-11-11/8-8-8-------------10-10-10-10-11-11-11/8-8-8----------|
E|----------------------------------------------------------------------------|

G|---------------------------------------------------------------------------|
D|-10------------------------------------------------------------------------|
A|----10-10-10-10-11-11-11/8-8-8---------------------------------------------|
E|---------------------------------------------------------------------------|

(2:21)
bridge 1 x2
(2:54)
bridge 2 x2
(3:22)
bridge 1 x3
(4:05)
G|---------------------------------------12(x4)-10(x4)-----------------------|
D|10(x20)-8(x15)-12(x10)-13(x10)-----------------------13(x4)-12~~~~---------|
A|-------------------------------10(x15)-------------------------------------|
E|---------------------------------------------------------------------------|
Comments