Red Hot Chili Peppers - Parallel Universe Chords & Tabs

 

Parallel Universe Chords & Tabs

Red Hot Chili Peppers Chords & Tabs

Version: 2 Type: Bass Tab 2 ratings
1 star 2 stars 3 stars 4 stars 5 stars
comments

Parallel Universe Bass Tab

Song: Parallel Universe
Artist: Red Hot Chili Peppers
Album: Californication
Tabbed by: Derek5272

Notes in () are played twice, notes not in () are played 4 times.

Intro
G|-------------------------------------------------------------------------------------12-10-------
D|-10-10-10-10-10-10-10-10-------------------------12-12-12-12-13-13-13-13-------------------13-12-
A|-------------------------13-13-13-13-13-13-13-13-------------------------10-10-10-10-------------
E|-------------------------------------------------------------------------------------------------

Verse
G|-------------------------------------------------------------------------------------12-10-------
D|-10-10-10-10-10-10-10-10-------------------------12-12-12-12-13-13-13-13-------------------13-12-
A|-------------------------13-13-13-13-13-13-13-13-------------------------10-10-10-10-------------
E|------------------------------------------------------------------------------------------------- *2
[ Tab from: http://www.guitartabs.cc/tabs/r/red_hot_chili_peppers/parallel_universe_btab_ver_2.html ]
Chorus
G|--------------------------------------------------------
D|-10-10-10-(10)------------13-13-------------------------
A|---------------(10)-11-11-------10-10-10-10-10-10-10-10-
E|-------------------------------------------------------- *2

Verse
Chorus *2

Break
G|-------------
D|-10----------
A|----10-11----
E|----------13- *8

Verse
Chorus *2
Verse

Outro
G|-------------------------------------------------------------------------------------12-10-------
D|-10-10-10-10-10-10-------------------------------12-12-12-12-13-13-13-13-------------------13-12-
A|-------------------13-10-11-11-11-11-11-11-11-11-------------------------10-10-10-10-------------
E|-------------------------------------------------------------------------------------------------

G|-------------------------------------------------------------------------------------12-10----------
D|-10-10-10-10-10-10-12-13-------------------------12-12-12-12-13-13-13-13-------------------13-12-10-
A|-------------------------13-13-13-13-13-13-13-13-------------------------10-10-10-10----------------
E|----------------------------------------------------------------------------------------------------
Comments