Red Hot Chili Peppers - Parallel Universe Chords & Tabs

 

Parallel Universe Chords & Tabs

Red Hot Chili Peppers Chords & Tabs

Version: 1 Type: Bass Tab 0 ratings
1 star 2 stars 3 stars 4 stars 5 stars
comments

Parallel Universe Bass Tab

Artist: Red Hot Chili Peppers
Song: Parallel Universe
Album: Californication
Last tab on BTA by: Eric Koppel (Skater6782@aol.com)
Actual tab by: Alexandre Lima (alxlima@zip.net)

Each marked note should be played four times.
~ indicates longer notes, not vibrato.

   Intro
G:|------|-------------|----|---------|-----------|
D:|----8h|-10-10-10-10-|-O/-|-8-8-8-8-|-8-8-8-8-/-|
A:|------|-------------|-/O-|---------|-----------|
E:|------|-------------|----|---------|-----------|
--|------|-xxxxxxxxxxx-|----|-xxxxxxx-|-xxxxxxx---|
                                                           
G:|-------------|-------------|-------------|-12-10-------|
D:|-12-12-12-12-|-13-13-13-13-|-------------|-------13-12-|
A:|-------------|-------------|-10-10-10-10-|-------------|
E:|-------------|-------------|-------------|-------------|
--|-xxxxxxxxxxx-|-xxxxxxxxxxx-|-xxxxxxxxxxx-|-xxxxxxxxxxx-|

   Verse
G:||--------------|----|---------|-----------|
D:||*-10-10-10-10-|-O/-|-8-8-8-8-|-8-8-8-8-/-|
A:||*-------------|-/O-|---------|-----------|
E:||--------------|----|---------|-----------|
--||--xxxxxxxxxxx-|----|-xxxxxxx-|-xxxxxxx---|
                                                           
G:|-------------|-------------|-------------|-12-10--------||
D:|-12-12-12-12-|-13-13-13-13-|-------------|-------13-12-*||
A:|-------------|-------------|-10-10-10-10-|-------------*||
E:|-------------|-------------|-------------|--------------||
--|-xxxxxxxxxxx-|-xxxxxxxxxxx-|-xxxxxxxxxxx-|-xxxxxxxxxxx--||

    Chorus
G:||-----------------------|-------------|-------------|-----||
D:||*-10-10-10-10-10-------|-------13-13-|-------------|-O/-*||
A:||*----------------10-10-|-11-11-------|-10-10-10-10-|-/O-*||
E:||-----------------------|-------------|-------------|-----||
--||--xxxxxxxx-------------|-xxxxxxxxxxx-|-xxxxxxxxxxx-|-----||

Verse 2
[PLAY VERSE]

Chorus 2
[PLAY CHORUS TWICE]

    Interlude              7x
G:||-----------------------||
D:||*-10------------------*||
A:||*----10-11-11-11-10-8-*||
E:||-----------------------||
--||--xxxxx-------------x--||

Verse 3
[PLAY VERSE]

Chorus 3                                                     2x
G:||-----------------------|-------------|-------------|-----||
D:||*-10-10-10-10-10-------|-------13-13-|-------------|-O/-*||
A:||*----------------10-10-|-11-11-------|-10-10-10-10-|-/O-*||
E:||-----------------------|-------------|-------------|-----||
--||--xxxxxxxx-------------|-xxxxxxxxxxx-|-xxxxxxxxxxx-|-----||
[ Tab from: http://www.guitartabs.cc/tabs/r/red_hot_chili_peppers/parallel_universe_btab.html ]
G:|--------------------|-------------|-------------|----|
D:|-10-10-10-----------|-------13-13-|-------------|-O/-|
A:|----------8-8-10-10-|-11-11-------|-10-10-10-10-|-/O-|
E:|--------------------|-------------|-------------|----|
--|-xxxxxxxx-----------|-xxxxxxxxxxx-|-xxxxxxxxxxx-|----|

    Solo (verse w/ variations)
G:||--------------|----|---------|-----------|
D:||*-10-10-10-10-|-O/-|-8-8-8-8-|-8-8-8-8-/-|
A:||*-------------|-/O-|---------|-----------|
E:||--------------|----|---------|-----------|
--||--xxxxxxxxxxx-|----|-xxxxxxx-|-xxxxxx----|
                                                           
G:|-------------|-------------|-------------|-12-10--------||
D:|-12-12-12-12-|-13-13-13-13-|-------------|-------13-12-*||
A:|-------------|-------------|-10-10-10-10-|-------------*||
E:|-------------|-------------|-------------|--------------||
--|-xxxxxxxxxxx-|-xxxxxxxxxxx-|-xxxxxxxxxxx-|-xxxxxxxxxxx--||

 
G:||--------------|-------------------|---------|-----------|
D:||*-10-10-10-10-|-10-10-10-10-10-12-|-8-8-8-8-|-8-8-8-8-/-|
A:||*-------------|-------------------|---------|-----------|
E:||--------------|-------------------|---------|-----------|
--||--xxxxxxxxxxx-|-xxxxxxxx----------|-xxxxxxx-|-xxxxxxx---|
                                                           
G:|-------------|-------------|-------------|-12-10-----------||
D:|-12-12-12-12-|-13-13-13-13-|-------------|-------12/13-12-*||
A:|-------------|-------------|-10-10-10-10-|----------------*||
E:|-------------|-------------|-------------|-----------------||
--|-xxxxxxxxxxx-|-xxxxxxxxxxx-|-xxxxxxxxxxx-|-xxxxx----xxxxx--||

 
G:||--------------|-------------------|---------|-----------|
D:||*-10-10-10-10-|-10-10-10-10-8--6~-|-8-8-8-8-|-8-8-8-8-/-|
A:||*-------------|-------------------|---------|-----------|
E:||--------------|-------------------|---------|-----------|
--||--xxxxxxxxxxx-|-xxxxxx------------|-xxxxxxx-|-xxxxxxx---|
                                                           
G:|-------------|-------------|-------------|-12-10--------||
D:|-12-12-12-12-|-13-13-13-13-|-------------|-------13-12-*||
A:|-------------|-------------|-10-10-10-10-|-------------*||
E:|-------------|-------------|-------------|--------------||
--|-xxxxxxxxxxx-|-xxxxxxxxxxx-|-xxxxxxxxxxx-|-xxxxxxxxxxx--||

G:||--------------|-------------------|---------|-----------|
D:||*-10-10-10-10-|-10-10-10-10-10-12-|-8-8-8-8-|-8-8-8-8-/-|
A:||*-------------|-------------------|---------|-----------|
E:||--------------|-------------------|---------|-----------|
--||--xxxxxxxxxxx-|-xxxxxxxx----------|-xxxxxxx-|-xxxxxxx---|
                                                           
G:|-------------|-------------|-------------|-12-10--------||------------|
D:|-12-12-12-12-|-13-13-13-13-|-------------|-------13-12-*||-10~/11\10~-|
A:|-------------|-------------|-10-10-10-10-|-------------*||------------|
E:|-------------|-------------|-------------|--------------||------------|
--|-xxxxxxxxxxx-|-xxxxxxxxxxx-|-xxxxxxxxxxx-|-xxxxxxxxxxx--||------------|

Comments