Red Hot Chili Peppers - Out In La Chords & Tabs

 

Out In La Chords & Tabs

Red Hot Chili Peppers Chords & Tabs

Version: 3 Type: Bass Tab 0 ratings
1 star 2 stars 3 stars 4 stars 5 stars
comments

Out In La Bass Tab

Red Hot Chili Peppers
Out In L.A

E-mail: blade_blood_strife@hotmail.com

Main Riff
G|----------------------------------------------------|
D|------------------------5---------------------------|
A|-7-5-----7-5-4-5--4h5h7----7-5-----5-7-4-4-5--------|
E|-----6-7-----------------------6-7------------(15\)-|
[ Tab from: http://www.guitartabs.cc/tabs/r/red_hot_chili_peppers/out_in_la_btab_ver_3.html ]
Solo
G|-----------6h7------------7h9-----9-----9---7---------|
D|--------------------x7h9---------------------------5--|
A|-------5h7-----x5h7---------------------------5h7----7|
E|-15\-0-------------------x-----0----x-x---x-------x---|
   S   S S   P   SS   SS   SP    S  P S S P S P S   SP S

G|-------------------------------7-----10-------12----^14|
D|-------------------------------------------------------|
A|-----------------------5h7p5-5---8-8----10-10----10----|
E|-0-3-x-3/5-x-5/7-x-7/9---------------------------------|
   S S S S   S S   S S   S     S P S S P  S  S  P  S   P
Comments