Red Hot Chili Peppers - Otherside Chords & Tabs

 

Otherside Chords & Tabs

Red Hot Chili Peppers Chords & Tabs

Version: 2 Type: Tab 3 ratings
1 star 2 stars 3 stars 4 stars 5 stars
comments

Otherside Tab

   
|------------------------------|
|------------0-----------------|
|-------2-2----2-0-------------|     
|-2-2-2------------2-2-2-0-0-0-|     ---> intro riff : play 3 times
|-0-0-0------------3-3-3-------|
|-------1-1--------------3-3-3-|
[ Tab from: http://www.guitartabs.cc/tabs/r/red_hot_chili_peppers/otherside_tab_ver_2.html ]
|---------------0-0-0--------|
|---------0------------0-0-0-|
|-------2---2-0--------------|
|-2-2-2----------------------|
|-0-0-0---------3-3-3--------|
|-------1--------------------|


|A5  E5| ---> 3 times
|G5  A5|
|A5  E5| ---> 3 times
|G5  A5|
|G5  A5|
|G5    |
|A5    |


Chorus:

|A5  F5|
|C5  G5|

*Play chorus chords repeatedly 3 times.
Figure out the lyrics and chord changes .. 
but the riff and chords are right. Enjoy!

-NutZ
Comments