Red Hot Chili Peppers - Otherside Chords & Tabs

 

Otherside Chords & Tabs

Red Hot Chili Peppers Chords & Tabs

Version: 1 Type: Tab 10 ratings
1 star 2 stars 3 stars 4 stars 5 stars
comments

Otherside Tab

   
Band: Red Hot Chili Peppers
Song: Otherside
Album: Californication
Tabbed by paul czech



intro
-----------------------------------------------------------------------------
-----------------------------------------------------------------------------
-----------------------------------------------------------------------------
--------------7--7--9--7-----------------------------------------------------
-----7--7--7--------------10--7--------5--5--5-------------------------------
-----------------------------------------------------------------------------

-----------------------------------------------------------------------------
-----------------------------------------------------------------------------
-----------------------------------------------------------------------------
--------------7--7--9--7-----------------------------------------------------
-----7--7--7--------------10--7--7--7--5--5--5-------------------------------
-----------------------------------------------------------------------------
How long, how long.......                                              
                               
-----------------------------------------------------------------------------
-----------------------------------------------------------------------------
-----------------------------------------------------------------------------
-------------7--7--9--7------------------------------------------------------
----7--7--7--------------10--7--7--7--5--5--5--------------------------------
-----------------------------------------------------------------------------
                                                                       
-----------------------------------------------------------------------------
-----------------------------------------------------------------------------
----------------------9--9--9------------------------------------------------
-------------7--7--7----------9---9--9---------------------------------------
----7--7--7------------------------------------------------------------------
-----------------------------------------------------------------------------
                                                                       
verse 
(a)                            (b)
------------------------15----|-----3--------------5-------------------------
--13--------------12----------|-----3--------------5-------------------------
------------------------------|-----4--------------6-------------------------
------------------------------|-----5--------------7-------------------------
------------------------------|-----5--------------7-------------------------
------------------------------|-----3--------------5-------------------------
Verse form
(a) x3
(b) x1
(a) x3
(b) x3
heard your voice through a photograph........
[ Tab from: http://www.guitartabs.cc/tabs/r/red_hot_chili_peppers/otherside_tab.html ]
chorus
-----------------------------------------------------------------------------
-----------------------------------------------------------------------------
-----------------------------------------------------------------------------
-------------7--7--9--7------------------------------------------------------
----7--7--7--------------10--7--7--7--5--5--5--------------------------------
-----------------------------------------------------------------------------
                                                                       
-----------------------------------------------------------------------------
-----------------------------------------------------------------------------
-----------------------------------------------------------------------------
-------------7--7--9--7------------------------------------------------------
----7--7--7--------------10--7--7--7--5--5--5--------------------------------
-----------------------------------------------------------------------------

-----------------------------------------------------------------------------
-----------------------------------------------------------------------------
---------------------9--9--9--9/12--12--12--12-------------------------------
-------------7--7--7---------------------------------------------------------
----7--7--7------------------------------------------------------------------
-----------------------------------------------------------------------------
how long how long............

verse 
(a)                            (b)
------------------------15----|-----3--------------5-------------------------
--13--------------12----------|-----3--------------5-------------------------
------------------------------|-----4--------------6-------------------------
------------------------------|-----5--------------7-------------------------
------------------------------|-----5--------------7-------------------------
------------------------------|-----3--------------5-------------------------
Verse form
(a) x3
(b) x1
(a) x3
(b) x3                                                                 
                   
Pour my life into a paper cup.......

chorus                                                                 
-----------------------------------------------------------------------------
-----------------------------------------------------------------------------
-----------------------------------------------------------------------------
-------------7--7--9--7------------------------------------------------------
----7--7--7--------------10--7--7--7--5--5--5--------------------------------
-----------------------------------------------------------------------------
                                                                       
-----------------------------------------------------------------------------
-----------------------------------------------------------------------------
-----------------------------------------------------------------------------
-------------7--7--9--7------------------------------------------------------
----7--7--7--------------10--7--7--7--5--5--5--------------------------------
-----------------------------------------------------------------------------

-----------------------------------------------------------------------------
-----------------------------------------------------------------------------
----------------------9--9--9------------------------------------------------
-------------7--7--7-----------9----9--9-------------------------------------
----7--7--7------------------------------------------------------------------
-----------------------------------------------------------------------------
Bridge

    |-------------Harmonics--------------------|                      
-----12-----12-------12------------------------------------------------------
--------------------------------12---12-----12-------------------------------
-----------------------------------------------------------------------------
-----------------------------------------------------------------------------
-----------------------------------------------------------------------------
-----------------------------------------------------------------------------
                                                                       
Solo
------------------10/12--12-12-12---12h15--12-12-12h15-12-12h15-12--12h5-----
--10--10-10-10-10------------------------------------------------------------
-----------------------------------------------------------------------------
-----------------------------------------------------------------------------
-----------------------------------------------------------------------------
-----------------------------------------------------------------------------

Comments