Red Hot Chili Peppers - Otherside Chords & Tabs

 

Otherside Chords & Tabs

Red Hot Chili Peppers Chords & Tabs

Version: 4 Type: Bass Tab 0 ratings
1 star 2 stars 3 stars 4 stars 5 stars
comments

Otherside Bass Tab

|---------------------------------------------------------------|
|                         Tabbed By Gee                         |
|                 HommieGee@rockonpeople.zzn.com                |
|             rockonpeople@communities.ninemsn.com.au           |
|---------------------------------------------------------------|

Bass Tabz
Red Hot Chilli Peppers
Californication
Other Side

Intro
G|--------|--------|--------|--------|
D|--------|--------|--------|--------|
A|--------|--------|-3-3-33-|--------|
E|-5-5-53-|-1-1-11-|--------|-3-3-33-|

Intro
Intro
Intro

Verse P1
G|----------|------------------|
D|-77777777-|-1414141414141414-|
A|----------|------------------|
E|----------|------------------|

Verse P1
Verse P1

Verse P2
G|----------|----------|----------|
D|----------|----------|----------|
A|----------|----------|----------|
E|-3~~~~~~~-|-5~~~~~~~-|-~~~~~~~~-|

Verse P1
Verse P1
Verse P1

Verse P3
G|----------|----------|----------|----------|
D|----------|----------|----------|----------|
A|----------|----------|----------|----------|
E|-3~~~~~~~-|-5~~~~~~~-|-3~~~~~~~-|-5~~~~~~~-|

G|----------|----------|----------|----------|
D|----------|----------|----------|----------|
A|----------|----------|----------|----------|
E|-3~~~~~~~-|-~~~~~~~~-|-5-5-5-5--|-55555555-|
[ Tab from: http://www.guitartabs.cc/tabs/r/red_hot_chili_peppers/otherside_btab_ver_4.html ]
Chorus
G|--------|--------|--------|--------|
D|--------|--------|--------|--------|
A|--------|--------|-3-3-33-|--------|
E|-5-5-53-|-1-1-11-|--------|-3-3-3--|

G|--------|--------|--------|--------|
D|--------|--------|--------|--------|
A|--------|--------|-3-3-33-|----32--|
E|-5-5-53-|-1-1-11-|--------|-03---3-|

G|--------|--------|--------|--------|
D|--------|--------|--------|---5----|
A|--------|--------|-3-3-33-|--------|
E|-5-5-53-|-1-1-11-|--------|-3---3--|

Verse P1
Verse P1
Verse P1

Verse P4
G|----------|----------|----------|----------|
D|----------|----------|----------|----------|
A|----------|----------|----------|----------|
E|-3~~~~~~~-|-5~~~~~~~-|-~~~~~~~~-|-~~~~~~~~-|

Verse P1
Verse P1
Verse P1
Verse P3
Chorus

Bridge
G|----------|----------|----------|----------|
D|----------|----------|----------|----------|
A|---7-57---|---7-57---|----------|---109----|
E|-0-----0--|-0-----0--|-05788788-|-10----10-|

G|----------|----------|----------|----------|
D|----------|----------|----------|----------|
A|---7-57---|---7-57---|----------|-109-7----|
E|-0-----0--|-0-----0--|-05788788-|-------10-|

Bridge
Intro
Chorus
Intro

Outro
G|--------|--------|--------|--------|
D|--------|--------|--------|--------|
A|--------|--------|-3-3-33-|--------|
E|-5-5-55-|-7-7-77-|--------|-3-3-33-|

Final Note
G|--------|
D|--------|
A|--------|
E|-5~~~~~-|
Comments