Red Hot Chili Peppers - Otherside Chords & Tabs

 

Otherside Chords & Tabs

Red Hot Chili Peppers Chords & Tabs

Version: 2 Type: Bass Tab 0 ratings
1 star 2 stars 3 stars 4 stars 5 stars
comments

Otherside Bass Tab

Otherside
Red Hot Chilli Peppers

Intro
|--------------------------------------|
|--------------------------------------|
|---------------------------3--3-3-2---|
|-5--5-5--3--1--1-1--2-----------3-3-3-|

Chours1&2
|-------------------------------------------|
|-------------------------------------------|
|----------------------------3--3-3-2---3-2-|
|-5--5-5--3--1--1-1--2------------3---------|play twice

|--------------------------------------|
|--------------------------------------|
|---------------------------3--3-3-2---|
|-5--5-5--3--1--1-1--2-----------3-3-3-|

Chours 3
|---------------------------------------------------|
|---------------------------------------------------|
|---------------------------------3--3-3-3-2---3-2--|
|-5--5-5-5--3--1--1-1-1--2----------------3---------|play twice

|------------------------------------------------|
|------------------------------------------------|
|--------------------------3--3-3-3-2----3-2-----|
|-5--5-5-5--3--1--1-1-1--2-----------3-3-----3-3-|

Verse
|---------------------------|
|-7-7-7-777/14-14-14-141414-|
|-0-0-0-000-----------------|
|---------------------------|play three times

|------------|
|------------|
|------------|
|-3-----5----|

|---------------------------|
|-7-7-7-777/14-14-14-141414-|
|-0-0-0-000-----------------|
|---------------------------|play three times

|----------------------------------------------------|
|----------------------------------------------------|
|----------------------------------------------------|
|-3-3----5-5--3-3---5-5---3-3-33333333--5-5-55555555-|
[ Tab from: http://www.guitartabs.cc/tabs/r/red_hot_chili_peppers/otherside_btab_ver_2.html ]
bridge
|-------------------------------------|
|-------------------------------------|
|--7-5-7---7-5-7---------------10-9-5-|
|0-------0-------5-7-8-8-8-7-8--------|

|--------------------------------------------------|
|------------------------------------------------0-|
|--7-5-7---7-5-7---------------10-9-7-9-10-9-------|
|0-------0-------5-7-8-8-8-7-8---------------------|

|----------------------------------------|
|----------------------------------------|
|--7-5-7---7-5-7------------------10-9-5-|
|0-------0---------5-7-8-8-8-7-8---------|

|---------------------------------------|
|---------------------------------------|
|--7-5-7---7-5-7-----------------10-9-5-|
|0-------0---------5-7-8-8-8-7-8--------|

Outro/last chours

|------------------------------------------------------|
|------------------------------------------------------|
|------------------------------------3--3-3-3-2----3-2-|
|-5--5-5-5--3-3-1--1-1-1-2-2---------------3-----------|play twice

|-------------------------------------------------------|
|-------------------------------------------------------|
|-------------------------------------3--3-3-3-2----3-2-|
|-5--5-5-5-3-3--1--1-1-1-2-2----------------3-3-----3-3-|

|------------------------------------------------------|
|------------------------------------------------------|
|------------------------------------3--3-3-3-2-2--3-2-|
|-5--5-5-5-3-3--1--1-1-1-2-2-----------------3---------|

|---------------------------------------------------------|
|---------------------------------------------------------|
|---------------------------------3--3-3-3-2---------3-2--|
|-5--5-5-5--3--1--1-1-1--2---------------3-3-3------3-3---|
if i made any booboos then write the tab yourself and send it in
once again tagged by your ONLY friend Enemy Offline
Comments