Red Hot Chili Peppers - On Mercury Chords & Tabs

 

On Mercury Chords & Tabs

Red Hot Chili Peppers Chords & Tabs

Version: 2 Type: Bass Tab 0 ratings
1 star 2 stars 3 stars 4 stars 5 stars
comments

On Mercury Bass Tab

RED HOT CHILI PEPPERS - On Mercury
Album: By the Way
Transcribed by  plugin79@hotmail.com

This is the basic stuff to know. Just work on it and have fun !


Riff 1:
G------------------------------------------------------------|
D------------------------------------------------------------|
A-----99--9-10-10-9-9-7-7-9--121212--777----7-7-9-9-10-10-9--|
E--7---------------------------------------------------------|

Riff 2:
G------------------------------------------------------------|
D------------------------------------------------------------|
A--10---10------10-10--/12----9-10-9---9-9--9----------------|
E----------10--------------10-------------------9-1010-1212--|


G-------------------------------------------------|
D-------------------------------------------------|
A--10---10------10-/14-12--10----9---99--9-9-9-9--|
E----------10-----------------10------------------|
[ Tab from: http://www.guitartabs.cc/tabs/r/red_hot_chili_peppers/on_mercury_btab_ver_2.html ]
Riff 3:
G----------4--------------7---------------------------9----|
D------4-----4--------7-----7------------7--------9-----9--|
A--2-----------2--5-----------5------7-----7--7------------|
E--------------------------------5-------------------------|


G----------4--------------7----------------------------------|
D------4-----4--------7-----7------------7-------------------|
A--2-----------2--5-----------5------7-----7-----------------|
E--------------------------------5------------2-2---2--2--2--|


G----------4--------------7---------------------------9----|
D------4-----4--------7-----7------------7--------9-----9--|
A--2-----------2--5-----------5------7-----7--7------------|
E--------------------------------5-------------------------|


G----------4--------------7---------------|
D------4-----4--------7-----7-------------|
A--2-----------2--5--------------4--------|
E--------------------------------------6--|

Bridge:
G-----4----------------------------|
D----------2-4-4----------7-7-9----|
A--2-----2-------------7--------7--|
E-------------------5--------------|


At the end, play this:
G----------4--------------7-----------------|
D------4-----4--------7-----7---------------|
A--2-----------2--5-------------4--5--4-----|
E----------------------------------------6--|
Comments