Red Hot Chili Peppers - Nevermind Chords & Tabs

 

Nevermind Chords & Tabs

Red Hot Chili Peppers Chords & Tabs

Version: 2 Type: Tab 0 ratings
1 star 2 stars 3 stars 4 stars 5 stars
comments

Nevermind Tab

   
Band: Red Hot Chili Peppers
Song: Nevermind

Tabbed by: Ignacio "Coco" Vespoli
e-mail: cocofuhgawz@hotmail.com


VERSE
e|--10----10----10----10-10--|--10----10----10-10----10----|
B|---9-----9-----9-----9--9--|---9-----9-----9--9-----9----|
G|---7-----7-----7-----7--7--|---7-----7-----7--7-----7----|
D|---------------------------|-----------------------------|
A|---------------------------|-----------------------------|
E|---------------------------|-----------------------------|


CHORUS
e|--9--9--9--9--9--9--9--9--|--9--9--9--9--9--9--9--9--|
B|--9--9--9--9--9--9--9--9--|--9--9--9--9--9--9--9--9--|
G|--9--9--9--9--9--9--9--9--|--9--9--9--9--9--9--9--9--|
D|--8--8--8--8--8--8--8--8--|--8--8--8--8--8--8--8--8--|
A|--9--9--9--9--9--9--9--9--|--9--9--9--9--9--9--9--9--|
E|--------------------------|--------------------------|


GUITAR SOLO
e|------------------------|---------------------------|
B|--12--------------------|--12b--------------12------|
G|--12--------------------|--12b--------------12------|
D|------------------------|---------------------------|
A|------------------------|---------------------------|
E|------------------------|---------------------------|

[ Tab from: http://www.guitartabs.cc/tabs/r/red_hot_chili_peppers/nevermind_tab_ver_2.html ]
--------------------------|---------------------------|
--------------------------|---------------------------|
--------------------------|---------------------------|
--14----------------------|--14b----------------------|
--------------------------|---------------------------|
--------------------------|---------------------------|


--------------------------|
--------------------------|
--12\---------------------|
--------------------------|
--------------------------|
--------------------------|

--------------------------|---------------------------|
--12----------------------|---------------------------|
--12----------------------|---------------------------|
--12----------------------|--14-----------------------|
--------------------------|---------------------------|
--------------------------|---------------------------|


---------------------------------------------------|
---------------------------------------------------|
---------------------------------------------------|
-----------12----------------------12--------------|
--12-13-14----14-13-12-12-12-13-14----14-13-12-12--|
---------------------------------------------------|

--------------------------------------|
--------------------------------------|
--------------------------------------|
-----------12-14-12-----12h14~~-------|
--12-13-14----------14----------------|
--------------------------------------|

b   bend
~   vibrato
/\  slide
h   hammer on
p   pull off

=============================================================================
Comments or additions? send an e-mail!!!
Comments