Red Hot Chili Peppers - My Lovely Man Chords & Tabs

 

My Lovely Man Chords & Tabs

Red Hot Chili Peppers Chords & Tabs

Version: 2 Type: Bass Tab 0 ratings
1 star 2 stars 3 stars 4 stars 5 stars
comments

My Lovely Man Bass Tab

Red Hot Chili Peppers
My lovely man
Tabbed by Truijllo
[ Tab from: http://www.guitartabs.cc/tabs/r/red_hot_chili_peppers/my_lovely_man_btab_ver_2.html ]
Verse 1 ( 1 version )                                                         
G |--------------------7--9-7------------------------------------------
D |-------------7-5-/9--------9-7---------------------------------------
A |-7-5-7-5-7-5--------------------7-5-7-5-7-5--------5--7-5------------
E |--------------------------------------------5-3-/7--------7-5--------
Verse 1 ( 2 version )
G |---------------------------------------------------------------------
D |---------------------------------------------------------------------
A |-7-5-7-5-7-5--------5--7-5------7-5-7-5-7-5--------5--7-5------------
E |-------------5-3-/7--------7-5--------------5-3-/7--------7-5--------

Verse 2  ( main part without variation............a lot .... )         
G |---------------------------------------------------------------------
D |-------------------------------------------------------------------5-
A |-0---0-0---0--2-2-2-2-0-2----/5h7-7-7--5h7-7-7--7-7--/5h7-7-7--5h7---7-5
E |---3-----3-----------------------------------------------------------

ending little solo...                                                          
G |------------12-----(12)h14~12----------------------------------------
D |--14----12-----14----------------12----------------------------------
A |-----14-----------------------14----14-12----------------------------
E |---------------------------------------------------------------------


Comments