Red Hot Chili Peppers - My Friends Chords & Tabs

 

My Friends Chords & Tabs

Red Hot Chili Peppers Chords & Tabs

Version: 2 Type: Bass Tab 0 ratings
1 star 2 stars 3 stars 4 stars 5 stars
comments

My Friends Bass Tab

   
This is the actual tab for this song.
Tuning: E,A,D,G,

INTRO
G|---10/12---10-|--------10-----10-|------------10-|---9--10-10-|-12
D|--------------|12--12------------|--------10-----|12----------|--
A|--------------|------------------|10--10/12------|------------|--


G|--------10--10-|--12----------------|------9--10----10-|-12---10/12
D|---------------|---------10------10-|-12---------------|----------
A|--8-7-5--------|---10/12-----12-----|------------------|----------

[ Tab from: http://www.guitartabs.cc/tabs/r/red_hot_chili_peppers/my_friends_btab_ver_2.html ]
G|--10/12---10--10|----------10----------------10|-12-----10-------
D|----------------|-12---12------------10--12----|-----12----------
A|----------------|--------------10/12-----------|-----------10/12-


G|------------10|--12----------------|----------10----|--------------|
D|---10---12----|------12---9/10-----|--12--12--------|---5----------|
A|--------------|--------------------|-------------(0)|----------3--4|
E|--------------|--------------------|----------------|---3---5------|


Thats just the intro part of the song email me for the rest. 

Punkisnotdead13@yahoo.com

Comments