Red Hot Chili Peppers - Mini Epic Chords & Tabs

 

Mini Epic Chords & Tabs

Red Hot Chili Peppers Chords & Tabs

Version: 1 Type: Bass Tab

Mini Epic Bass Tab

   
“Mini Epic” by Red Hot Chili Peppers
Bass part by Michael Balzary (Flea)
Tabbed by Dan Bogosian (UtBDan)
Visit UtBDan's band at:
http://www.utbrocks.com/

INTRO:
G---------9~~~---12~~~---------|
D-10~~~------------------10~~~-|
A------------------------------|
E------------------------------|

G----------------------|
D-12~~~---10~~~---7~~~-|
A----------------------|
E----------------------|

VERSE 1:
G---------9~~~---12~~~---------|
D-10~~~------------------10~~~-|
A------------------------------|
E------------------------------|

G----------------------|
D-12~~~---10~~~---7~~~-|
A----------------------|
E----------------------|

G---------9~~~---12~~~---------|
D-10~~~------------------10~~~-|
A------------------------------|
E------------------------------|

G----------------------|
D-12~~~---10~~~---7~~~-|
A----------------------|
E----------------------|

G--------
D-7~~~---
A--------|
E--------|

VERSE 2:
G-----------------------------------------------------------|
D----------------------------------------------2--0-2--5--5-|
A-----------4h7-4h5-3--3--33--3-5-6-7--7--77----------------|
E-5--5--55--------------------------------------------------|

G---------------------------------------------------------------|
D----------------------------------------------2--0-2--5--5-5h7-|
A-----------4h7-4h5-3--3--33--3-5-6-7--7--77--------------------|
E-5--5--55------------------------------------------------------|

G-----------------------------------------------------------|
D----------------------------------------------2--0-2--5--5-|
A-----------4h7-4h5-3--3--33--3-5-6-7--7--77----------------|
E-5--5--55--------------------------------------------------|

G---------------|
D----------2--2-|
A--3--1-3-------|
E---------------|

G-----------------------------------------------------------|
D----------------------------------------------2--0-2--5--5-|
A-----------4h7-4h5-3--3--33--3-5-6-7--7--77----------------|
E-5--5--55--------------------------------------------------|

G---------------------------------------------------------------|
D----------------------------------------------2--0-2--5--5-5h7-|
A-----------4h7-4h5-3--3--33--3-5-6-7--7--77--------------------|
E-5--5--55------------------------------------------------------|

G-----------------------------------------------------------|
D----------------------------------------------2--0-2--5--5-|
A-----------4h7-4h5-3--3--33--3-5-6-7--7--77----------------|
E-5--5--55--------------------------------------------------|

G---------------|
D----------2--2-|
A--3--1-3-------|
E---------------|
[ Tab from: http://www.guitartabs.cc/tabs/r/red_hot_chili_peppers/mini_epic_btab.html ]
BRIDGE & VERSE 3:
G-------------------------------------------------|
D-------------------------------------------------|
A-33-33-33-33-33-33-33-33-33-33-33-33-33-33-33-33-|
E-------------------------------------------------|

G--------------|
D------------2-|
A-3-3--1--3----|
E--------------|

G---------------------------------------------------|
D---------------------------------------------------|
A-33-33-33-33-33-33-33-33-33-33-33-33-33-33-33-33---|
E---------------------------------------------------|

G--------------|
D------------2-|
A-3-3--1--3----|
E--------------|

G---------------------------------------------------|
D---------------------------------------------------|
A-33-33-33-33-33-33-33-33-33-33-33-33-33-33-33-33---|
E---------------------------------------------------|

G--------------|
D------------2-|
A-3-3--1--3----|
E--------------|

G---------------------------------------------------|
D---------------------------------------------------|
A-33-33-33-33-33-33-33-33-33-33-33-33-33-33-33-33---|
E---------------------------------------------------|

G--------------|
D------------2-|
A-3-3--1--3----|
E--------------|

G---------------------------------------------------|
D---------------------------------------------------|
A-33-33-33-33-33-33-33-33-33-33-33-33-33-33-33-33---|
E---------------------------------------------------|

G-------------------------|
D-------------------------|
A-33-33-33-33-33-33-33-33-|
E-------------------------|

VERSE 4:
“RUN ‘EM DOWN, RUN ‘EM DOWN”
G--------------------|
D-5--5-5--55--3-3--5-|
A--------------------|
E--------------------|

G----------------|
D----------------|
A-0-0--0--0-0--0-|
E----------------|

G--------------------|
D-5--5-5--55--3-3--5-|
A--------------------|
E--------------------|

G----------------|
D----------------|
A-0-0--0--0-0--0-|
E----------------|

G----------------------------|
D----------------------------|
A-5-5--0-7--5--00--0--00--0--|
E----------------------------|

G----------------------------|
D----------------------------|
A-5-5--0-7--5--00--0--00--0--|
E----------------------------|

G--------------------|
D-5--5-5--55--3-3--5-|
A--------------------|
E--------------------|

G----------------|
D----------------|
A-0-0--0--0-0--0-|
E----------------|

G--------------------|
D-5--5-5--55--3-3--5-|
A--------------------|
E--------------------|

G----------------|
D----------------|
A-0-0--0--0-0--0-|
E----------------|

G----------------------------|
D----------------------------|
A-5-5--0-7--5--00--0--00--0--|
E----------------------------|

G----------------------------|
D----------------------------|
A-5-5--0-7--5--00--0--00--0--|
E----------------------------|

G------------------------------|
D------------------------------|
A--00--0--00--0--00--0--00--0--|
E------------------------------|