Red Hot Chili Peppers - Midnight Chords & Tabs


Midnight Chords & Tabs

Red Hot Chili Peppers Chords & Tabs

Version: 5 Type: Tab 0 ratings
1 star 2 stars 3 stars 4 stars 5 stars

Midnight Tab

Red HOt Chili Peppers
By the Way
Tabbed by Kyle

Verse: F#m-Dmaj7 2x then Bm-C#m-D 2x

A         E
under the laws of light
F         C
under the moon by midnight
A           E
we'll do it all this time
evryone wish him where he's going...?

[ Tab from: ]
  Ev e ry one    knows....
  Ev e ry thing  goes...................
e ---------------------------17-17-17-17-|
b ---------------------------17-17-17-17-|
g -5-------------------------------------|
d -5---5---5-----2---4-7-----------------|
a -3---5---5-----3/5-----7---------------|
e -----3---3-------------5---------------|

    For the sto  ry
e --------------------------------|
b ---------------3-3-3-3-3-3-3-3--|
g -5-------------2-2-2-2-2-2-2-2--|
d -5--------5----0-0-0-0-0-0-0-0--|
a -3--------5----0-0-0-0-0-0-0-0--|
e ----------3---------------------|

ends on a D i think, i dont know.