Red Hot Chili Peppers - Midnight Chords & Tabs

 

Midnight Chords & Tabs

Red Hot Chili Peppers Chords & Tabs

Version: 2 Type: Tab 0 ratings
1 star 2 stars 3 stars 4 stars 5 stars
comments

Midnight Tab

#-----------------------------------------------------------------------------#
#-- File created with Instab - http://www.pconline.com/~smcarey/instab.html --#
#-----------------------------------------------------------------------------#

Author/Artist: Red Hot Chili Peppers
Title: Midnight
Album: By the Way
Transcribed by: Chris Valente
Email: RedHotMetallica@aol.com

Capo 2nd Fret. Tablature irrelavent to capo. Timing is partially shown in tab.
There are actually two guitars in this song, so this may sound a little dry.
Have Fun!

  Verse pt. 1           
				  Fill 1      Fill 2      
---------------2-2-2-2-----------|--------------------------------------------
--2-2-2-2-2-2--2-3-2-3-2h3p2-----|--------------------------------------------
--2-2-2-2-2-2--4-4-4-4-------4p2-|--------------------------------------------
--4-2-4-2-4-2--4-4-4-4-----------|-4h6-7--------------------------------------
--4-4-4-4-4-4--2-2-2-2-----------|-------7------------------------------------
--2-2-2-2-2-2--------------------|--------------------------------------------                
  Verse prt. 2                    
[ Tab from: http://www.guitartabs.cc/tabs/r/red_hot_chili_peppers/midnight_tab_ver_2.html ]
--2-2-5p2--5-5-5--------------------------------------------------------------
--3-2-3----7-7-7--------------------------------------------------------------
--4-4-4----7-7-7--------------------------------------------------------------
--4-4-4----7-7-7--------------------------------------------------------------
--2-2-2----5-5-5--------------------------------------------------------------
------------------------------------------------------------------------------
    
  Pre-chorus                                                       

---5--2--3--5----5--2--3------------------------------------------------------
---5--4--5--5----5--4--5------------------------------------------------------
---6--4--5--6----6--4--5------------------------------------------------------
---7--4--5--7----7--4--5------------------------------------------------------
---7--2--3--7----7--2--3------------------------------------------------------
---5--------5----5------------------------------------------------------------

  Chorus                                                                                     				 Chorus ends on D strummed multiple times
--3---3---5---5--17-17-17-17-17-|---------------------------------------------
--5---3---7---5--17-17-17-17-17-|-7-------------------------------------------
--5---4---7---6-----------------|-7-------------------------------------------
--5---5---7---7-----------------|-7-------------------------------------------
--3---5---5---7-----------------|-5-------------------------------------------
------3-------5-----------------|---------------------------------------------
Comments