Red Hot Chili Peppers - Mellowship Slinky In B Major Chords & Tabs

 

Mellowship Slinky In B Major Chords & Tabs

Red Hot Chili Peppers Chords & Tabs

Version: 5 Type: Bass Tab 0 ratings
1 star 2 stars 3 stars 4 stars 5 stars
comments

Mellowship Slinky In B Major Bass Tab

MELLOWSHIP SLINKY IN BMAJOR, by the Red Hot Chili Peppers
Tabbed by UtBDan
Bass part by Michael Balzary (Flea)
Visit UtBDan's site at:
www.utbrocks.com

Note bottom half of the solo/interlude was updated cause I noticed I made an error in
typing it up... still had the write part memorized though.

INTRO:
G-----------------------------------------------|
D-----------------------------------------------|
A-4---3---2--0h5--6--7----------5---7--7--5-7---|
E---------------------0--0--0-7---7-------------|

G--------------------------------------------------|
D--------------------------------------------------|
A-4---3---2--0h5--6--7----------5---7----------5---|
E---------------------0--0--0-7---7--0--0--0-7---7-|

G-----------------------------------------------|
D-----------------------------------------------|
A-4---3---2--0h5--6--7----------5---7--7--5-7---|
E---------------------0--0--0-7---7-------------|

G----------------------------------------|
D----------------------------------------|
A-4---3---2--0h5--6--7----------5---7----|
E---------------------0--0--0-7---7--0---|

VERSE:
G-8----------------|
D---9-7--------99--|
A-------9----------|
E---------77-------|

G--8----------------|
D-9--9-7--------77--|
A--------9----------|
E----------77-------|

G--8----------------|
D-7--9-7--------99--|
A--------9----------|
E----------77-------|

END OF VERSE:
G-8------------------|
D---9-7-----9--8--7--|
A-------9------------|
E--------------------|

TRANSITION BETWEEN TWO GUITAR PARTS:
G-8-------------------------------------|
D---9-7-----9--8--7------------------7--|
A-------9------------9-8-7--5-7-7--9----|
E---------------------------------------|
[ Tab from: http://www.guitartabs.cc/tabs/r/red_hot_chili_peppers/mellowship_slinky_in_b_major_btab_ver_5.html ]
NOTE: this takes place of "End of verse" at one section and takes the first part of 
version section. John sings doo's over these root notes, and it's just a transition between 
two different verse guitar parts.

END OF VERSE (PRE-CHORUS):
G-8------------------9--|
D---9-7-----9--8--7-----|
A-------9---------------|
E-----------------------|

NOTE: This is the way Flea plays the end of the verse only directly before the chorus.

CHORUS:
G---------------------------------------------------|
D-------------------5-----------------------5-------|
A-5-7-5-7---5-7-5-7---7---4-5-4-5---4-5-4-5---4-----|
E---------------------------------------------------|

G---------------------------------------------------|
D-------------------5-------------------------------|
A-5-7-5-7---5-7-5-7---7---4-5-4-5-4--5-4-5-4--5-4-5-|
E---------------------------------------------------|

G---------------------------------------------------|
D-------------------5-----------------------5-------|
A-5-7-5-7---5-7-5-7---7---4-5-4-5---4-5-4-5---4-----|
E---------------------------------------------------|

G---------------------------------------------------|
D-------------------5-------------------------------|
A-5-7-5-7---5-7-5-7---7---4-5-4-5-4--5-4-5-4--5-4-5-|
E---------------------------------------------------|

INTERLUDE:
G------------------|
D-------0--2--4----|
A-1/2------------2-|
E------------------|

G------------------|
D-------0--2--4----|
A-1/2------------2-|
E------------------|

G------------------|
D-------0--2--4----|
A-1/2------------2-|
E------------------|

G------------------|
D-------0--2--4----|
A-1/2------------2-|
E------------------|
G------------------|
D-5/7---5--4-------|
A-------------7--5-|
E------------------|

G------------------|
D-5/7---5--4-------|
A-------------7--5-|
E------------------|

G------------------|
D------------------|
A------------------|
E-3/5---3--2--1--0-|

G------------------|
D------------------|
A------------------|
E-3/5---3--2--1--0-|
Comments