Red Hot Chili Peppers - Mellowship Slinky In B Major Chords & Tabs

 

Mellowship Slinky In B Major Chords & Tabs

Red Hot Chili Peppers Chords & Tabs

Version: 4 Type: Bass Tab 0 ratings
1 star 2 stars 3 stars 4 stars 5 stars
comments

Mellowship Slinky In B Major Bass Tab

This is an easy tab

g--------------------------------------------------------------------------------
d--------------------------------------------------------------------------------
a---4--3--2--0-5-6-7-------5----7-7-5-7\---4--3--2-0-5-6-7--------5---7-------5--
e--------------------0-0-7---7------------------------------0-0-7---7---0-0-7--7-

g------------------------------------8----------------------------8-------
d--------------------------------------7-----------9-9--x9-9----x---7-----
a--4--3--2--0-5-6-7------5---7-----------9----------------------------9---
e-------------------0-0-7--7---0-----------7----------------------------7-

g----------------8---------------------------8--------------------8-------
d-9-9--x7-7----x---7---------9-9--x99-----x----7---------9-8-7--x---7-----
a--------------------9---------------------------9--------------------9---
e----------------------7---------------------------7--------------------7-
[ Tab from: http://www.guitartabs.cc/tabs/r/red_hot_chili_peppers/mellowship_slinky_in_b_major_btab_ver_4.html ]
Verse
Bass Fig 2
g-----------------8---------=-----------------------8-------
d-9-9--x9-9-----x---7-------=-----9-9--x9-7------x---7------
a---------------------9-----=---------------------------9---
e-----------------------7---=-----------------------------7-

g-----------------8---------=-------------8-------
d-9-9--x9-9-----x---7-------=-----------x---7-----
e---------------------9-----=-----------------9---
a-----------------------7---=--7--6--5----------7-
Then repeat first three measures of bass fog two then play this

g---------------8-------
d---9--8--7---x---7-----
a-------------------9---
e---------------------7-

Then Play the first three measures again then this to go into the chorus

g----------------------------------------
d-9-----8--7------------------------7--8-
a------------8h9-----8--7--5--7-8h9------
e----------------------------------------

The chorus is the same as bass fig two but for the third measure where it goes
(its just a timing difference but is worth while talking about)
g--------------8-----------
d-9-9--x9-9---x------7-----
a----------------------9---
e------------------------7-

I will have more later
 By tim
Comments