Red Hot Chili Peppers - Mellowship Slinky In B Major Chords & Tabs

 

Mellowship Slinky In B Major Chords & Tabs

Red Hot Chili Peppers Chords & Tabs

Version: 3 Type: Bass Tab 0 ratings
1 star 2 stars 3 stars 4 stars 5 stars
comments

Mellowship Slinky In B Major Bass Tab

   
Song:	Mellowship Slinky in B Major
Artist:	Red Hot Chili Peppers 
Album:	Blood Sugar Sex Magic

Tabbed by reubs
(additions to the incomplete tab submitted by Rasmus Blanck)

The parts of the song are:
Intro
A|-4-3-2--0-5-6-7-------5---7-7-5-7-
E|----------------0-0-7---7---------

A|-4-3-2--0-5-6-7-------5---7-------5---
E|----------------0-0-7---7---0-0-7---7-
 
Verse (variation 1)  
G|---------7^8---------------7^8-------
E|-----9-9-----9-7-------9-7-----9-7---
A|-----------------9-----------------9-
E|-7-7---------------7-7---------------

Verse (variation 2)
G|---------7^8---------------7^8-------
E|-----9-9-----9-7-----9-8-7-----9-7---
A|-----------------9-----------------9-
E|-7-7---------------------------------
[ Tab from: http://www.guitartabs.cc/tabs/r/red_hot_chili_peppers/mellowship_slinky_in_b_major_btab_ver_3.html ]
Verse (variation 3)
G|---------7^8-------------------------------
E|-----9-9-----9-7-----9-8-7-------------7-9-
A|-----------------9---------9-8-7-5-7-9-----
E|-7-7---------------------------------------

Chorus (the good god part) 
D|------------------------------------------------
A|-4-------------------5----------------------5---
E|---5-7-5-7---5-7-5-7---7--4-5-4-5---4-5-4-5---5-

D|-----------------------------------------------------
A|-------------------5---------------------------------
E|-5-7-5-7---5-7-5-7---7--4-5-4-5-4--4-5-4-5-4---4-5-4-

Solo
D|----------
A|-10-9-8-7-
E|----------

D|-------------------------
A|-----5-7-9-7-----5-7-9-5-
E|-7-----------7-----------x2

D|-----------------------------
A|-12---10-9-8-7-12---10-9-8-7-
E|-----------------------------

D|-------------------------
A|-------------------------
E|-5---3-2-1-0-5---3-2-----

Comments