Red Hot Chili Peppers - Mellowship Slinky In B Major Chords & Tabs

 

Mellowship Slinky In B Major Chords & Tabs

Red Hot Chili Peppers Chords & Tabs

Version: 2 Type: Bass Tab 0 ratings
1 star 2 stars 3 stars 4 stars 5 stars
comments

Mellowship Slinky In B Major Bass Tab

this tab is better than all other tabs.
all other tabs must bow before this tab and it's perfectness
much btter than that other horrible mellpwship slinky in b major tab that other jackass put up

riff 1
G----------------------------------------------
D----------------------------------------------
A-4---3---2---0-5-6---7----------5---7-7-5-7\--
E------------------------0--0--7---7-----------

G----------------------------------------------
D----------------------------------------------
A-4---3---2---0-5-6---7----------5---7-------5-
E------------------------0--0--7---7---0-0--7-7

G----------------------------------------------
D----------------------------------------------
A-4---3---2---0-5-6---7----------5---7-7-5-7\--
E------------------------0--0--7---7-----------

G----------------------------------------------
D----------------------------------------------
A-4---3---2---0-5-6---7----------5---7---------
E------------------------0--0--7---7---0-------

============================================================
riff 2
G--8------------------8----------------8--------------8------------
D---7-----9-9--*9-9--*-7----9-9--*7-7-*-7---9-9-*9-9-*-7---9--8--7-
A----9------------------9----------------9--------------9----------
E-----7------------------7----------------7--------------7---------
[ Tab from: http://www.guitartabs.cc/tabs/r/red_hot_chili_peppers/mellowship_slinky_in_b_major_btab_ver_2.html ]
=============================================================
riff 3
G--8------------------8----------------8--------------8------------
D-*-7-----9-9--*9-9--*-7----9-9--*9-7-*-7---9-9-*9-9-*-7-----------
A----9------------------9----------------9--------------9----------
E-----7------------------7----------------7--------------7--7-6-5--
============================================================
fill 1
G----------------------7-8--
D--8/9--8--7--5--7--/9------
A---------------------------
E---------------------------

===========================================================
riff 4
G----------------------------------------------
D-----------------5----------------------5-----
A-7-5-7---5-7-5-7----7--4-5-4-5---4-5-4-5--4---
E----------------------------------------------

G------------------------------------------------------
D------------------5-----------------------------------
A-5-7-5-7---5-7-5-7----7--4-5-4-5-4--4-5-4-5-4--4-5-4-5
E------------------------------------------------------

===========================================================
fill 2
G--------------
D--5--4--3-----
A-----------5--
E--------------

==========================================================
riff 5
G-----------------
D---------2--4----
A--1/2--5------2--
E-----------------
=========================================================
riff 6
G---------------------------------------------------------
D--6/7--5----------6/7--7---------------------------------
A----------9--8-7------9--8-7-----------------------------
E------------------------------4/5--3-2-1-0---4/5--3-2-1--
==========================================================

riff 1
riff 2
riff 3 x2
riff 2
fill 1
riff 3
riff 1
play a 5 on e string leading into...
riff 4 x2
fill 2
riff 2
riff 3 
riff 2
play a 5 on e string leading into...
riff 4 x2
fill 2
riff 5 x2
riff 6
riff 3 x2
riff 2
riff 1


give me some feed back 
let me know if anything needs correcting
Comments