Red Hot Chili Peppers - Mellowship Slinky In B Major Chords & Tabs

 

Mellowship Slinky In B Major Chords & Tabs

Red Hot Chili Peppers Chords & Tabs

Version: 1 Type: Bass Tab 0 ratings
1 star 2 stars 3 stars 4 stars 5 stars
comments

Mellowship Slinky In B Major Bass Tab

Band: RHCP
Song: Mellowship Slinky in B Major
Album: Blood Sugar Sex Magik


G|-------------------------------|
D|-------0-1-2-------0---2-2-0-2-|
A|-4-3-2-----------2---2---------|
E|-------------0-0---------------|

G|-----------------------------------|
D|-------0-1-2-------0---2-------0---|
A|-4-3-2-----------2---2-------2---2-|
E|-------------0-0---------0-0-------|

G|-------------------------------|
D|-------0-1-2-------0---2-2-0-2-|
A|-4-3-2-----------2---2---------|
E|-------------0-0---------------|

[ Tab from: http://www.guitartabs.cc/tabs/r/red_hot_chili_peppers/mellowship_slinky_in_b_major_btab.html ]
G|---------------------------|
D|-------0-1-2-------0---2---|
A|-4-3-2-----------2---2-----|
E|-------------0-0---------0-|

G|-8-------------------|
D|---9-----9-9---9-9---|
A|-----9---------------|
E|-------7-----7-----7-|

G|-8-------------------|
D|---9-----9-9---9-7---|
A|-----9---------------|
E|-------7-----7-----7-|

G|-8-------------------|
D|---9-----9-9---9-9---|
A|-----9---------------|
E|-------7-----7-----7-|

G|-8-------------|
D|---9-----------|
A|-----9---------|
E|-------7-7-6-5-|


That is all that I have of this song, but it is
100% correct. If you know more of the song, please
e-mail me: kriket1134@msn.com



Comments