Red Hot Chili Peppers - Me And My Friends Chords & Tabs

 

Me And My Friends Chords & Tabs

Red Hot Chili Peppers Chords & Tabs

Version: 1 Type: Bass Tab 0 ratings
1 star 2 stars 3 stars 4 stars 5 stars
comments

Me And My Friends Bass Tab

   
Artist:Red Hot Chili Peppers
Song:"Me and My friends"
Tabbed by: Julián O. Barrera
FLEA RULES!

   Intro:
G----------9----------11---- |--11-9-------------|
D-----x/10-------x/10----(2x)|-------10-(8x)-----|
A--0----------0--------------|-------------------|
E----------------------------|-------------------|

   Chorus:
G-----------------------------------------------|
D---7-5-------------------------5h7-------------|
A-------5-(5x)-5-5-5-5-5-5-5-5-------5-5-5-5-5-5|
E-----------------------------------------------|
[ Tab from: http://www.guitartabs.cc/tabs/r/red_hot_chili_peppers/me_and_my_friends_btab.html ]
   Verse:
G---------------------------------|
D---------------------------------|
A--------5-5-5-5------5-5-5-(9x)--|
E--0-0-0----------0-0-------------|
   S S S S S S S  S S S S S

   Guitar Solo:
G-------------------------------|-----------------------------------------|-----------------------------------------------|
D-------------------------------|-----------------------------------------|-----------------------------------------------|
A--------5-5-5-5------5-5-5-(8x)|-5-x-5-x-5-x-5-x-5-5-0-0-0-0-0-0-0-0-0-0-|5-x-5-x-5-x-5-x-5-5-0-0-0-0-0-0-0-0-3-3-3-3-3-3|
E--0-0-0----------0-0-----------|-----------------------------------------|-----------------------------------------------|
   S S S S S S S  S S S S S
   Interlude:
G--------------------------------|
D--------------------------------|
A-3/5\(37x)-3/5-5-5-5-5-5-5-5-5-5|
E--------------------------------|

Comments