Red Hot Chili Peppers - Maybe Chords & Tabs

 

Maybe Chords & Tabs

Red Hot Chili Peppers Chords & Tabs

Version: 1 Type: Tab 0 ratings
1 star 2 stars 3 stars 4 stars 5 stars
comments

Maybe Tab

Tabbed by: Eric C
Artist: RHCP
Song Title: Maybe
Tuning: Standard

  This song is actually played by rhcp guitarist john frusciante. He sings this in the 
"live at slane castle", right after around the world. Figure out the counts for yourself.

first part:

e|----------------6-------------3----------------x----------------------|
B|----------------6-------------3----------------4----------------------|
G|----------------7-------------3----------------3----------------------|
D|----------------8-------------5----------------5----------------------|
A|----------------8-------------5----------------6----------------------|
E|-1--1--3--5--6--6-------------3----------------x----------------------|
                  maybe....if i pray, everynight... you'll come home to

e|--x---------6-------------3------------------x---------------------x--|
B|--6---------6-------------3------------------4---------------------6--|
G|--5---------7-------------3------------------3---------------------5--|
D|--7---------8-------------5------------------5---------------------7--|
A|--8---------8-------------5------------------6---------------------8--|
E|--x---------6-------------3------------------x---------------------x--|
   me...  and maybe... if i called, everyday...  you'll come back to stay..
[ Tab from: http://www.guitartabs.cc/tabs/r/red_hot_chili_peppers/maybe_tab.html ]
e|-------------6--------------------------------------------------------|
B|-------------6---8---6------------------------------------------------|
G|-------------7---8---7------------------------------------------------|
D|-------------8---8---8------------------------------------------------|
A|-------------8---6---x------------------------------------------------|
E|-------------6-------x------------------------------------------------|
   ooooohhhhh maybe.....

second part:

e|----------------6-------------3----------------x----------------x-----|
B|----------------6-------------3----------------4----------------6-----|
G|----------------7-------------3----------------3----------------5-----|
D|----------------8-------------5----------------5----------------7-----|
A|----------------8-------------5----------------6----------------8-----|
E|-1--1--3--5--6--6-------------3----------------x----------------x-----|
                  maybe... if i hold, your hand... you will understand...

e|------6-----------3-------------------x-------------------x-----------|
B|------6-----------3-------------------4-------------------6-----------|
G|------7-----------3-------------------3-------------------5-----------|
D|------8-----------5-------------------5-------------------7-----------|
A|------8-----------5-------------------6-------------------8-----------|
E|------6-----------3-------------------x-------------------x-----------|
   and maybe...if i kissed, your lips... i'll be at your command....

e|-------------6-------------------6-----------------------------------|
B|-------------6---8---6---8-------6---8---6---------------------------|
G|-------------7---8---7---8-------7---8---7---------------------------|
D|-------------8---8---8---8-------8---8---8---------------------------|
A|-------------8---6---x---6-------8---6---x---------------------------|
E|-------------6-------x-----------6-------x---------------------------|
   ooooohhhhh maybe.....ooooohhhhh maybe.....

end on this note:  e|-----
                   B|--6--
                   G|--7--
                   D|--8--
                   A|--x--
                   E|--x--

It's a fairly easy song to play, pure strumming, have fun with it! :)
Comments