Red Hot Chili Peppers - Make You Feel Better Chords & Tabs

 

Make You Feel Better Chords & Tabs

Red Hot Chili Peppers Chords & Tabs

Version: 1 Type: Tab

Make You Feel Better Tab

Red hot chili peppers
Make you feel better
Stadium arcadium cd 2 Mars

Tabbed by josu
Email. josu_makinen@hotmail.com
2006


Intro/verse


e-----------------|
B-----------------|
G-9---------12----|  10x
D-9--9--10--12----|
A-7--9--10--10----|
E----7--8---------|


Chorus


e-----------------|
B-----------------|
G----7--9---------|   4x
D-5--7--9--10-----|
A-5--5--7--10-----|
E-3--------8------|


2nd Verse 6x
[ Tab from: http://www.guitartabs.cc/tabs/r/red_hot_chili_peppers/make_you_feel_better_tab.html ]

Chorus

e-----------------|
B-----------------|
G----7--9---------|   4x
D-5--7--9--10-----|
A-5--5--7--10-----|
E-3--------8------|


Bridge

e-----------------|
B-----------------|
G-7--9------------|   1x
D-7--9--10--5-----|
A-5--7--10--5-----|
E-------8---7-----|


3rd Verse 6x


Chorus

e-----------------|
B-----------------|
G----7--9---------|   8x
D-5--7--9--10-----|
A-5--5--7--10-----|
E-3--------8------|