Red Hot Chili Peppers - Magic Johnson Chords & Tabs

 

Magic Johnson Chords & Tabs

Red Hot Chili Peppers Chords & Tabs

Version: 2 Type: Tab 0 ratings
1 star 2 stars 3 stars 4 stars 5 stars
comments

Magic Johnson Tab

Band: Red Hot Chili Peppers
Song: Magic Johnson
Album: Mothers Milk
Music by Anthony Kiedis
Flea, John Frusciante, and Chad Smith



Intro and verse


Pm………………………………………………………………………………………………………………………………………………
-----------------------------------------------------------
-----------------------------------------------------------
-----------------------------------------------------------
-----------------------------------------------------------
-----------------------------------------------------------
-0-0-0-0-0-0-0-0-0-0-0-0-0-0-0-0-0-0-0-0-0-0-0-0-0-0-0-0---


Funked Out riff
 *
-14-14-14--14-x-x-14-x-x-14-x-x-14-x-x-14-x-x-x-15-15--15--
-17-17-17--17-x-x-17-x-x-17-x-x-17-x-x-17-x-x-x-15-15--15--
-16-16-16--16-x-x-16-x-x-16-x-x-16-x-x-16-x-x-x------------
-----------------------------------------------------------
-----------------------------------------------------------
-----------------------------------------------------------

-14-14-14--14-x-x-14-x-x-14-x-x-14-x-x-14-x-x-x-17-17--17--
-17-17-17--17-x-x-17-x-x-17-x-x-17-x-x-17-x-x-x-17-17--17--
-16-16-16--16-x-x-16-x-x-16-x-x-16-x-x-16-x-x-x------------
-----------------------------------------------------------
-----------------------------------------------------------
-----------------------------------------------------------
[ Tab from: http://www.guitartabs.cc/tabs/r/red_hot_chili_peppers/magic_johnson_tab_ver_2.html ]
-14-14-14--14-x-x-14-x-x-14-x-x-14-x-x-14-x-x-x-15-15--15--
-17-17-17--17-x-x-17-x-x-17-x-x-17-x-x-17-x-x-x-15-15--15--
-16-16-16--16-x-x-16-x-x-16-x-x-16-x-x-16-x-x-x------------
-----------------------------------------------------------
-----------------------------------------------------------
-----------------------------------------------------------
                                 *                                                        *
-14-14-14--14-x-x-14-x-x-14-x-x-14-x-x--7--8---x--12-13-14-
-17-17-17--17-x-x-17-x-x-17-x-x-17-x-x--7--8---x--12-13-14-
-16-16-16--16-x-x-16-x-x-16-x-x-16-x-x--7--8---x--12-13-14-
-----------------------------------------------------------
-----------------------------------------------------------
-----------------------------------------------------------

* to * you have to have an octave pedal and set it one octave higher


Solo

-----------------------------15//17\\15--------------------
--14-15----------------------15//17\\15----14-15-----------
--------12-14-12-----12/14-----------------------12-14-12--
-----------------14----------------------------------------
-----------------------------------------------------------
-----------------------------------------------------------

--------------------------------------------15//17\\15-----
-------------------14-15--------------------15//17\\15-----
-------------------------12-14-12----12/14-----------------
-14--x----------------------------14-----------------------
-------12--12--12------------------------------------------
-----------------------------------------------------------

----------------------17-17-17-17-17-----------------------
-14-15----------------17-17-17-17-17----14-15--------------
-------12-14-12-------------------------------12-14-12-----
----------------14-------------------------------------14--
-----------------------------------------------------------
-----------------------------------------------------------

--------15//17\\15-----------------------------------------
--------15//17\\15---14-15---------------------------------
-12/14---------------------12-14-12------------------------
------------------------------------14---------------------
---------------------------------------12-x-12-x-12--12----
-----------------------------------------------------------

--------------------------15//17\\15--x-7--8---x-12-13--14-
-14-15--------------------15//17\\15--x-7--8---x-12-13--14-
-------12-14-12----12/14--------------x-7--8---x-12-13--14-
----------------14-----------------------------------------
-----------------------------------------------------------
-----------------------------------------------------------
That's it, the solo is a little off, but you can swing it 
and make it sound pretty good, John Frusciante is the man.
Comments