Red Hot Chili Peppers - Leverage Of Space Chords & Tabs

 

Leverage Of Space Chords & Tabs

Red Hot Chili Peppers Chords & Tabs

Version: 1 Type: Tab 0 ratings
1 star 2 stars 3 stars 4 stars 5 stars
comments

Leverage Of Space Tab

Band: Red Hot Chili Peppers
Song: Leverage of Space
Album: Live at Hyde Park

This is one of the new tracks from the Live at Hyde Park album, which i must add
was an amazing gig for anybody who couldn't go. I went on the 19th show and it
was so good.
Anyways, here's the live tab for Leverage of Space, track 2 on the 2nd CD

INTRO
|--------------------------------------------------------------------------|
|-8-7--------8-7--------8-7-----8-7------8-7------------7-----7--8-7-------|
|-----9-7-9~-----9-7-9~-----9-7-----9-7------9-7-9~-7h9---7h9--------9-7-9~|
|--------------------------------------------------------------------------|
|--------------------------------------------------------------------------|
|--------------------------------------------------------------------------|

|--------------------------------------------------------------------------|
|-8-7-----8-7--------------------------------------------------------------|
|------9-7-----9-7---------------------------------------------------------|
|--------------------------------------------------------------------------|
|--------------------------------------------------------------------------|
|--------------------------------------------------------------------------|

VERSE
|----12----12----12----12----12----15----15----15----15----15--------------|
|-12----12----12----12----12----17----17----17----17----17-----------------|
|--------------------------------------------------------------------------|
|--------------------------------------------------------------------------|
|--------------------------------------------------------------------------|
|--------------------------------------------------------------------------|
[ Tab from: http://www.guitartabs.cc/tabs/r/red_hot_chili_peppers/leverage_of_space_tab.html ]
|----12----12----12----12----12--10-8-7------------------------------------|
|-12----12----12----12----12------------8----------------------------------|
|--------------------------------------------9---12---9---7----------------|
|--------------------------------------------------------------------------|
|--------------------------------------------7---10---7---5----------------|
|--------------------------------------------------------------------------|

CHORUS- Work out the strumming for yourself.
|-12-------|
|-12-------|
|-9--------|
|----------|
|----------|
|----------|

PREVERSE
|--------------------------------------------------------------------------|
|-8-7---------10(12)-8-7---------8-7-----8-7-------------------------------|
|-----9-7-9~-------------9-7-9~------9-7-----9-7---------------------------|
|--------------------------------------------------------------------------|
|--------------------------------------------------------------------------|
|--------------------------------------------------------------------------|

SOLO- I'm not 100% on this bit, the effect on the guitar part is quite distorted,
but it does fit into the solo space.
Play this twice
|--10(12)r10--8(10)r8-6(8)r6--8(10)r8------|
|------------------------------------------|
|------------------------------------------|
|------------------------------------------|
|------------------------------------------|
|------------------------------------------|

OUTRO
|-12--------|
|-12--------|
|-9---------|
|-----------|
|-----------|
|-----------|

Song Order:
Intro
Verse
Chorus
Preverse
Verse
Chorus
Solo
Outro

This is a brilliant song, and is not the hardest to play. Admitedly I tabbed
this at midnight, so it might not be perfect, but it's a start. 
Enjoy
Matt
Comments