Red Hot Chili Peppers - Leverage Of Space Live Chords & Tabs

 

Leverage Of Space Live Chords & Tabs

Red Hot Chili Peppers Chords & Tabs

Version: 1 Type: Bass Tab 0 ratings
1 star 2 stars 3 stars 4 stars 5 stars
comments

Leverage Of Space Live Bass Tab

   
-------------------------------------------------------------------------------
Leverage of Space(Live at Hyde Park) - Red Hot Chili Peppers
-------------------------------------------------------------------------------

Tabbed By : ali_dreamweaver
e-mail: ally_cloudsurfe@hotmail.com

Tuning: Standard (E A D G)

Taken from their first live album at Hyde Park. Leverage of space... This is a great 
and i hope you enjoy playing it as much as i do, this tab is about 90% accurate, on the 
Flea throws in some minor variations around the 21st, 19th and 17th frets, listen to
the song if you want to play them, i've just tabbed the main bass line for you.

INTRO AND VERSES
G|--------12----12--------12----12---------12-----12---------12--------------|
D|-14-14-----14-----14-14----14-----12--12----12------12--12-----------------|
A|---------------------------------------------------------------------------|
E|---------------------------------------------------------------------------|

G|--------12----12---------12----12-----------14----14--------14------14-----|
D|-10-10-----10-----10-10-----10------12--12----12-----12--12-----12---------|
A|---------------------------------------------------------------------------|
E|---------------------------------------------------------------------------|

BASS SOLO AND CHORUS(1st time)
[ Tab from: http://www.guitartabs.cc/tabs/r/red_hot_chili_peppers/leverage_of_space_live_btab.html ]
G|--------16-16-16-19-19-19-16-19-19-21--------14-14-14-21-21-21-19-19--------|
D|14-14-14-----------------------------12-12-12-----------------------21-19---|
A|----------------------------------------------------------------------------|
E|----------------------------------------------------------------------------|

G|----------------21-21-21-19-19-19-------------14-14-14-17-17-17-14-19-17---|
D|--------17-17-17-------------------17-12-12-12-----------------------------|
A|15-15-15-------------------------15----------------------------------------|
E|---------------------------------------------------------------------------|

G|16-------------------------------------------------------------------------|
D|--19-----------------------------------------------------------------------|
A|---------------------------------------------------------------------------|
E|---------------------------------------------------------------------------|

BASS SOLO BEFORE 2nd CHORUS

G|--------16-16-16-19-19-19-16-19-19-21--------16-16-16-19-19-19-16-21-19----|
D|14-14-14-----------------------------14-14-14--------------------------21--|
A|---------------------------------------------------------------------------|
E|---------------------------------------------------------------------------|

ENDING

G|---------------------------------------------------------------------------|
D|---------------------------------------------------------------------------|
A|---------------------------------------------------------------------------|
E|--0------------------------------------------------------------------------|

ORDER

INTRO x6
BASS SOLO AND CHORUS(1st time)x3
VERSE(SAME AS INTRO)x3
BASS SOLO BEFORE 2nd CHORUS x1
CHORUS x2
VERSE x3(ANTHONY SPEAKING)
CHORUS x3
ENDING

That's all, please rate this tab!!!  Enjoy!
===============================================================================
Comments