Red Hot Chili Peppers - Jungle Man Chords & Tabs

 

Jungle Man Chords & Tabs

Red Hot Chili Peppers Chords & Tabs

Version: 3 Type: Bass Tab 0 ratings
1 star 2 stars 3 stars 4 stars 5 stars
comments

Jungle Man Bass Tab

h=hammer on                                     tabbed by Mathieu R
/=slide up
\=slide
s=slap
p=pop

Intro
         S    S   P      S  S

E--------0h2--2----------2--0----------|
A--------------------------------------|
D-----------------4--------------------|
G--------------------------------------|

        s    s    p      s  s  s
E-------Oh2--2-----------2--0--2-------|
A--------------------------------------|
D-----------------4--------------------|
G--------------------------------------|    x2
       s    s     p     s   s  p   s   p

E------0h2--2-----------2---5------5--------|
A-------------------------------------------|
D-----------------4------------7-------9----|
G-------------------------------------------|   x4

E------------------------------------------------------------------|
A-------5----5--5-5-5-5-5-5-5-5-5-5-5-5-5-5-5-5-5-5-5-5-5-5-5-5-5\-|
D------------------------------------------------------------------|
G------------------------------------------------------------------|

VERSE

         S    S   P      S  S

E--------0h2--2----------2--0----------|
A--------------------------------------|
D-----------------4--------------------|
G--------------------------------------|

        s    s    p      s  s  s
E-------Oh2--2-----------2--0--2-------|
A--------------------------------------|
D-----------------4--------------------|
G--------------------------------------|

         S    S   P      S  S

E--------0h2--2----------2--0----------|
A--------------------------------------|
D-----------------4--------------------|
G--------------------------------------|

[ Tab from: http://www.guitartabs.cc/tabs/r/red_hot_chili_peppers/jungle_man_btab_ver_3.html ]
      SS    P   S S S S S
E--------------------------------------|
A-----5-5-------5/7-7-7-7--------------|
D--------------------------------------|   X4
G-----------7--------------------------|

CHORUS

       s    s     p     s   s  p   s   p

E------0h2--2-----------2---5------5--------|
A-------------------------------------------|
D-----------------4------------7-------9----|
G-------------------------------------------|   x8


INTERLUDE (DONT PLAY SLAP/POP)

E-----5-5------------------------------|
A--------------------3-3-5-5-6-7-------|
D------------7-------------------------|
G--------------------------------------|

E-----5-5---5--------5-----------------5-5-|
A------------------------3-3-5-5-6-7-------|
D---------------7--------------------------|
G------------------------------------------|

E----------------------------------------|
A--------------------3-3-5-5-6-7---------|
D----5-------7---------------------------|
G----------------------------------------|

E-----5------5------------5-----------------5-5-|
A------------------------------3-3-5-5-6-7------|
D-----------------7-----------------------------|
G-----------------------------------------------|

E----------------------------------------|
A--------------------3-3-5-5-6-7---------|
D----5-------7---------------------------|
G----------------------------------------|

E-----5------5------------5-----------------5-5-|
A------------------------------3-3-5-5-6-7------|
D-----------------7-----------------------------|
G-----------------------------------------------|

E----------------------------------------|
A--------------------3-3-5-5-6-7---------|
D----5-------7---------------------------|
G----------------------------------------|

E-----5---------------------------------5--|
A--------------------7-------7----5-0------|
D--------------7h5------5------------------|
G------------------------------------------|
Comments