Red Hot Chili Peppers - If You Want Me To Stay Chords & Tabs

 

If You Want Me To Stay Chords & Tabs

Red Hot Chili Peppers Chords & Tabs

Version: 4 Type: Bass Tab

If You Want Me To Stay Bass Tab

song: If You Want Me to Stay
band: Red Hot Chili Peppers
Album: FREAKY STYLEY
Tabbed by: FLIP

This is 100% correct.....i'm sure of that:

G--------------------------------------------------------------|
D-------------------------------------------------2-3333333----|
A-------------------------------------------5-333--------------|
E-2-3--4-5-5-5--2-3--4-5-5-5--------5-4-333--------------------|
[ Tab from: http://www.guitartabs.cc/tabs/r/red_hot_chili_peppers/if_you_want_me_to_stay_btab_ver_4.html ]
G--------5-4----------------------------------------5-4--------|
D-5555-33----77--------------------2-3333333-5555--------------|
A----------------------------5-333----------------3-----2------|
E---------------555555-4-333-----------------------------------|
And flea plays it also this way (as a variation):
G-----------------------------------------------------|
D-----------------------------------------------------|
A---------------5-333---------------------------------|  ETC
E-5555555-4-333-------0-11111111-0000-3-0-4-0--555555-|

that's it....Please rate this tab:):)....it's sooo fuuuunky:)
..chili peppers rules:)

oh..and sorry for my poor enlish:P...i'm from Poland:P