Red Hot Chili Peppers - If You Got Funk You Got Soul Chords & Tabs

 

If You Got Funk You Got Soul Chords & Tabs

Red Hot Chili Peppers Chords & Tabs

Version: 1 Type: Bass Tab

If You Got Funk You Got Soul Bass Tab

"If you got funk, you got soul" By the Red Hot Chili Peppers
Originally "if you got funk, you got style" by Funkadelic
Bass part by Michael Balzary (Flea) (originally by Bootsy Collins)
Visit UtBDan's site at:
http://www.utbrocks.com
[ Tab from: http://www.guitartabs.cc/tabs/r/red_hot_chili_peppers/if_you_got_funk_you_got_soul_btab.html ]
INTRO/INTERLUDE:
G---------------------|
D-------------1--2--1-|
A----------4----------|
E-5---2---------------|

(repeat x4 both times)

VERSE:
G--------------------------|
D--------------------------|
A--------------------------|
E-5--x-5-5---5-5---3--4--5-|

END:
G----|
D----|
A----|
E-5--|