Red Hot Chili Peppers - I Could Have Lied Chords & Tabs

 

I Could Have Lied Chords & Tabs

Red Hot Chili Peppers Chords & Tabs

Version: 13 Type: Tab

I Could Have Lied Tab

   
Red Hot Chili Peppers- I Could Have Lied 

e||-------------------------------|--------------------------|
B||-------------------------------|--------------------------|
G||-------------------------------|--------------------------|
D||-----0---4----0---4----0---4/--|-7---5-----4--------------|2x
A||-0h2---2----2---2----2---2-----|-0-------------5----------|
E||-------------------------------|-----------3--------3-----|

There must be something In the way I feel        That she don't want me            to feel 
e||-------------------------------|--------------------------|
B||-------------------------------|--------------------------|
G||-------------------------------|--------------------------|
D||-----0---4----0---4----0---4/--|-7---5-----4--------------|
A||-0h2---2----2---2----2---2-----|-0-------------5----------|
E||-------------------------------|-----------3--------3-----|

e||-------------------------------|--------------------------|
B||-------------------------------|--------------------------|
G||-------------------------------|--------------------------|
D||-----0---4----0---4----0---4/--|-7---5-----4--------------|
A||-0h2---2----2---2----2---2-----|-0-------------5----------|
E||-------------------------------|-----------3--------3-----|

The stare she bares it cut me                                I don't care You see so what if I bleed 
e||---------------------------------|------------------------|
B||-----------------------2h3p2-----|------------------------|
G||---------------------------------|------------------------|
D||-----0---4----0---4----------4/--|-7---5----4-------------|
A||-0h2---2----2---2----2-----------|-0------------5---------|
E||---------------------------------|----------3--------3----|

e||-------------------------------|--------------------------|
B||-------------------------------|--------------------------|
G||-------------------------------|--------------------------|
D||-----0---4----0---4----0---4/--|-7---5-----4--------------|
A||-0h2---2----2---2----2---2-----|-0-------------5----------|
E||-------------------------------|-----------3--------3-----|

I could never change Just what I feel My face will never show What is not real 
e|--------------------------|-0--------0----0------|
B|-4----4--x-7--7-7--7-7-7--|-0---0----0----0------|
G|-4----4--x-7--7-7--7-7-7--|-2---2----4----4------|
D|-4----4--x-7--7-7--7-7-7--|-2---2----5----5------|
A|-2----2--x-5--5-5--5-5-5--|-0--------------------|
E|--------------------------|----------------------|

e||---------------------------------|------------------------|
B||-----------------------2h3p2-----|------------------------|
G||---------------------------------|------------------------|
D||-----0---4----0---4----------4/--|-7---5----4-------------|
A||-0h2---2----2---2----2-----------|-0------------5---------|
E||---------------------------------|----------3--------3----|

e||-------------------------------|--------------------------|
B||-------------------------------|--------------------------|
G||-------------------------------|--------------------------|
D||-----0---4----0---4----0---4/--|-7---5-----4--------------|
A||-0h2---2----2---2----2---2-----|-0-------------5----------|
E||-------------------------------|-----------3--------3-----|


A mountain never seems to have The need to speak A look that shares so many seek 
e||-------------------------------|--------------------------|
B||-------------------------------|--------------------------|
G||-------------------------------|--------------------------|
D||-----0---4----0---4----0---4/--|-7---5-----4--------------|
A||-0h2---2----2---2----2---2-----|-0-------------5----------|
E||-------------------------------|-----------3--------3-----|

e||-------------------------------|--------------------------|
B||-------------------------------|--------------------------|
G||-------------------------------|--------------------------|
D||-----0---4----0---4----0---4/--|-7---5-----4--------------|
A||-0h2---2----2---2----2---2-----|-0-------------5----------|
E||-------------------------------|-----------3--------3-----|
The sweetest feeling I got from you                     The things I said to you were true 
e||-------------------------------|--------------------------|
B||-------------------------------|---------------0----------|
G||-------------------------------|--------------------------|
D||-----0---4----0---4----0---4/--|-7---5-----4--------------|
A||-0h2---2----2---2----2---2-----|-0-------------5----------|
E||-------------------------------|-----------3--------3-----|

e||-------------------------------|--------------------------|
B||-------------------------------|--------------------------|
G||-------------------------------|--------------------------|
D||-----0---4----0---4----0---4/--|-7---5-----4--------------|
A||-0h2---2----2---2----2---2-----|-0-------------5----------|
E||-------------------------------|-----------3--------3-----|

I could never change 
Just what I feel 
My face will never show 
What is not real 

      I could have lied     I'm such a fool 	    My eyes could never never never keep their cool 
e||-------------10---10-10--10-10-10\--|-5--5-5-5--3----3----3--|
B||-8--8-8-8--x-12---12-12--12-12-12\--|-7--7-7-7--5----5----5--|
G||-9--9-9-9--x-12---12-12--12-12-12\--|-7--7-7-7--5----5----5--|
D||-9--9-9-9--x-12---12-12--12-12-12\--|-7--7-7-7--5----5----5--|
A||-7--7-7-7--x-10---10-10--10-10-10\--|------------------------|
E||------------------------------------|------------------------|

    Showed her and I   told her how                                She struck me but I'm fucked up now  
e||-------------10---10-10--10-10-10\--|-5---5-5--5----3-3--3-3-3-3-|
B||-8--8-8-8--x-12---12-12--12-12-12\--|-7---7-7--7----5-5--5-5-5-5-|
G||-9--9-9-9--x-12---12-12--12-12-12\--|-7---7-7--7----5-5--5-5-5-5-|
D||-9--9-9-9--x-12---12-12--12-12-12\--|-7---7-7--7----5-5--5-5-5-5-|
A||-7--7-7-7--x-10---10-10--10-10-10\--|----------------------------|
E||------------------------------------|----------------------------|
[ Tab from: http://www.guitartabs.cc/tabs/r/red_hot_chili_peppers/i_could_have_lied_tab_ver_13.html ]
   Bm                      A         G
e||-----------------------|------------------------------|
B||-----------------------|------------------------------|
G||---------------_---7---|-9b11-------11b9--------------|
D||--------------7/9------|----------------------------9-|
A||---------5-------------|-------------------10----10---|
E||-/7--------------------|------------------------------|
   Bm                           A          G
e||----------------------------|-----------------------------|
B||--_--7--7--7-7-7---7--7---7-|-8b10---8---7----------------|
G||-6/7-------------9------9---|----------------7----7-7-9-7-|
D||----------------------------|-----------------------------|
A||----------------------------|-----------------------------|
E||----------------------------|-----------------------------|

   Bm                                           A               G
e||--------------------------------7-----------|------7--------------------------------------|
B||---------------7------7-------7---7-10b12.5-|-(10)---10--7-10-10p7~~-7h10p7---7-----------|
G||-9p7-x-7-9B11----9B11---9B11----------------|-------------------------------9---7b9r9-----|
D||--------------------------------------------|-----------------------------------------9-7-|
A||--------------------------------------------|---------------------------------------------|
E||--------------------------------------------|---------------------------------------------|

   Bm                      Bm7 Bm      A           G6
e||-----------------------------------|------------------------------------|
B||---------8-7-7h8p7-----------7-----|------------------------------------|
G||-------------------7-------7---7---|------------------------------------|
D||-9---9-9-------------9-9---------9-|-7h9--9-7-9----------------------12-|
A||-----------------------------------|-------------7s9----9p10---10/14----|
E||-----------------------------------|------------------------------------|

	Bm                              A                  Gmaj7 
e||-------------------------------------|-15B17r15--14----------------------|
B||-------------15-17b19--------------x-|--------------15---_-_-------------|
G||---_---14h16-------------------------|-----------------14\9\7--7~~-7-9-7-|
D||-14/16-------------------------------|-----------------------------------|
A||-------------------------------------|-----------------------------------|
E||-------------------------------------|-----------------------------------|
 
  Bm                       A         Gmaj7                  Bm 
e||------------------------|--------------------------------|-------------------|
B||---7--------------------|--------------------------------|-------------------|
G||-9-9B11---------(11)r9--|-9p7--7--7/9\5-------(5)\4/5\4\-|-2\0---------------|
D||------------------------|--------------------------------|-------------------|
A||------------------------|--------------------------------|-------------------|
E||------------------------|--------------------------------|-------------------|


But now she's gone yes she's gone away 
A soulful song 
That would not stay 
You see she hides 'cause she is scared 
But I don't care 
I won't be spared 

I could have lied I'm such a fool 
My eyes could never never never 
Keep their cool 
Showed her and I told her how 

   D              C
She struck me but I'm fucked up now 
e||----------------------------|
B||----------------------------|
G||----------------------2p0---|
D||--------x-----------------2-|
A||--------x-------------------|
E||-----------------12\--------|

   Em                     G                               D              C
I could have lied I'm such a fool              My eyes could never never never Keep their cool 
e||-----------------------------------------------------|------------------------------------|
B||-12-----12-----------12-15----15-12------------------|------------------------------------|
G||-14B16-----14-14B16-----14B16------14~~--14-12-14-12-|-14B16--14b17--14----12~~~-12-14-12-|
D||-----------------------------------------------------|------------------------------------|
A||-----------------------------------------------------|------------------------------------|
E||-----------------------------------------------------|------------------------------------|

   Em             G
Showed her and I told her how 
e||---------------------------------------|
B||---------------------------------------|
G||-14-12--------------12-----------------|
D||-------14--14~~~~~~----14-12-14-12-14--|
A||---------------------------------------|
E||---------------------------------------|

   D                  C
  She struck me but I'm fucked up now  
e||--------------------------------------------------------|
B||-----------------------------------------------15-12-15-|
G||-----------12-14B16-12-14B16-14p12----12-14-12----------|
D||-12H14--x--------------------------14-------------------|
A||--------------------------------------------------------|
E||--------------------------------------------------------|

   Em        G                      D                C           
e||-------------------------------|--------------------------------------|
B||-12-------------12-------------|--------------------------------------|
G||-------------------14-12-14B16-|-(14)-14B16r14------------14-12-12B14-|
D||-------------------------------|--------------------------------------|
A||-------------------------------|--------------------------------------|
E||-------------------------------|--------------------------------------|

   Em              G                  D          C
e||----------------------------------|--------------------------------|
B||----------------------------------|---------------------_----------|
G||-(14)r12-----------11-12-11-11B12-|-(12)r11---------(11)\4-7-4-4~~-|
D||----------------------------------|--------------------------------|
A||----------------------------------|--------------------------------|
E||----------------------------------|--------------------------------|

   Em        G              D           C
e||------------------------|-----------------------------|
B||------------------------|-----3-----------------------|
G||-(4)~~~~~~~~~~~-----0-2-|-2b4---4r2-0-2p0-2p0---------|
D||------------------2-----|---------------------2b4-----|
A||------------------------|-----------------------------|
E||------------------------|-----------------------------|


   Em          G           D         C
e||-----------------------|-----------------------------|
B||-----------------------|-----------------------------|
G||-----------------------|----------_------------------|
D||-(4)r2-----------------|-2---2-(2)/14---14~~~-14-----|
A||-----------------------|-----------------------------|
E||-----------------------|-----------------------------|

  Em
e||-7----------------|
B||-8----------------|
G||-9----------------|
D||-9----------------|
A||-7----------------|
E||------------------|