Red Hot Chili Peppers - I Could Die For You Chords & Tabs

 

I Could Die For You Chords & Tabs

Red Hot Chili Peppers Chords & Tabs

Version: 3 Type: Tab 0 ratings
1 star 2 stars 3 stars 4 stars 5 stars
comments

I Could Die For You Tab

"I Could Die For You


Tabbed by Ilias. Revised by Chris Valente
Any corrections are welcomed! Rythym Not Shown!


Intro:

e|-0----0--4-0-0-------------------|
B|-2----2----2-2-------------------|
G|-2----2----2-2----------2-----2--|
D|-2----2----2-2--------2-----2----|
A|-0----0----0-0------0-----x------|
E|--------------------------4------|

Verse:

 Something...    ...The cards...
 Dont want...    ...Somebody else...
e|---2------------7--------------|
B|---2------------5--------------|
G|---2------------4--------------|
D|---4------------6--------------|
A|---4------------4--------------|
E|---2---------------------------|


  This is...     ...and this...
  She smiles...  ...Do my time...
e|--------------------12--------|
B|---14---------------12--------|
G|---14---------------11--------|
D|---14---------------12--------|
A|---12-------------------------|
E|------------------------------|

Chorus:
  ...I could die for you
e|---5---------------------9----|
B|---5--------9-------7----10---|
G|---6--------9-------7----11---|
D|---7--------9-------9----11---|
A|---7--------7-------9----9----|
E|---5----------------7---------|
[ Tab from: http://www.guitartabs.cc/tabs/r/red_hot_chili_peppers/i_could_die_for_you_tab_ver_3.html ]
  ...Oh this life I...Choose
e|---5------------------7-7--7-7--7-----------|
B|---5--------9---------7-10-7-10-7-----------|
G|---6--------9---------7-7--7-7--7---7h9p7---| Then back to intro!
D|---7--------9---------9-9--9-9--9---------9-|
A|---7--------7-------------------------------|
E|---5----------------------------------------|
   Fill 1:           Fill 2:
  --------------    --9--7--5--4--|
  --------------    --9--7--5--4--|
  --7h9p7-------    --------------|
  --------9-----    --------------|
  --------------    --------------|
  --------------    --------------|

Bridge 1:

   You can see... ..Only...
e|----14-------------16--------|
B|----14-------------14--------|
G|----13-------------14--------|
D|----14-------------14--------|
A|-------------------12--------|
E|-----------------------------|

   Come along and go...  ...Along with me...
e|----9--12--9--12--9----------12-------|
B|----9--9---9--9---9----------14-------|
G|----9--9---9--9---9----------14-------|
D|----11-11--11-11--11---------14-------|
A|-----------------------------12-------|
E|--------------------------------------|
                         ^
           hit 14th fret high e 2nd time

twice then  back to chorus:

Bridge 2:

  Come on then...
e|----7-7-x-xx-x------9-9-x-x--|
B|----7-7-x-xx-x------9-9-x-x--|
G|----7-7-x-xx-x------9-9-x-x--|
D|-----------------------------|
A|-----------------------------|
E|-----------------------------|
Comments