Red Hot Chili Peppers - Hey Chords & Tabs

 

Hey Chords & Tabs

Red Hot Chili Peppers Chords & Tabs

Version: 1 Type: Bass Tab 0 ratings
1 star 2 stars 3 stars 4 stars 5 stars
comments

Hey Bass Tab

   
Song: Hey
Artist: Red Hot Chili Peppers
Album: Stadium Arcadium

Tabbed By: Marcos Prieto (marcrow_ps@yahoo.es)


Notation legend:
                                 
   x   -> mute.
   \   -> slide up.    \   It can be after or before the note, like 1h3,
   /   -> slide down.   |  but if there's no enought space it can be 
   h   -> hammer on.    |  over or down, like G|-13-...
   p   -> pull off.    /                      D|--h-...
   ~   -> let ring.
   + + -> the rhythm of the song, generally 4x4. If there are 2 digits notes
          or there's no enough space, I lengthen it, 
          from (+   +   ...) to (+       +      ...) 
   |·------·| -> repeat this a number of times, for example |·3-3-3-3·| x4
                 repeats 3-3-3-3 four times.

Verse:

   Cm               Bb               Ab               
   +   +   +   +    +   +   +   +    +   +   +   +    +   +   +   +    
G||12--------12----|12--------12----|12--------12----|12--------12----|
D|.10--------13----|----------13----|----------13----|----------------|
A|.----------------|13--------------|11--------------|11--------13----|
E||----------------|----------------|----------------|----------------|

                                                     *_____.1.______
  Cm               Bb               Ab                              \     
  +   +   +   +    +   +   +   +    +   +   +   +    +   +   +   +       
G|12--------12----|12--------12----|12--------12----|12--12--12--12--||
D|10--------13----|----------13----|----------13----|----13----------.|
A|----------------|13--------------|11--------------|11------11--13--.|
E|----------------|----------------|----------------|----------------||

  *______.2._____
                 \
  +   +   +   +   
G|12--12--12--1212|
D|----13----------|
A|11------11--1313|
E|----------------|

 * Change the ending .1. to ending .2. the last verse after the chorus.

Chorus:
                                                      _______X_______
                                                                     \
   Cm               Bb               F                Eb
   +   +   +   +    +   +   +   +    +   +   +   +    +   +   +   +    
G||8---------7-----|10--------8-----|12--------12----|12--------12----||
D|.----------------|----------------|----------------|----------------.|
A|.----------6-----|----------6-----|----------------|----------------.|
E||8---------------|6---------------|13--------13----|11--------11----||
[ Tab from: http://www.guitartabs.cc/tabs/r/red_hot_chili_peppers/hey_btab.html ]
  Chorus End 1 __      _________Chorus End 2 _________
                 \                                    \
  +   +   +   +        +       +       +       +    
G|12--------------|   |12------------------------------|
D|----------------|   |--------------------------------|
A|----------------|   |--------------------------------|
E|11--------------|   |11--11--11--11--11--11--11--11--|


Bridge:

  F                                 Eb
  +   +   +   +    +   +   +   +    +   +   +   +    +   +   +   + 
G|----10-------10-|----10----------|----------------|----------------|
D|----------------|------------10--|----------------|--8-------------|
A|8-----8-8-----8-|8-8-----------8-|6-----6-6-6---6-|6-------6---6-6-|
E|----------------|----------------|----------------|----------------|

  Db                                Ab               Bb
  +   +   +   +    +   +   +   +    +   +   +   +    +   +   +   + 
G|----------------|----------------|----------------|----------------|
D|----------------|----------------|----------------|----------------|
A|4-----4-4-4---4-|4-4-4---4---4---|----------------|----------------|
E|----------------|----------------|4-----4-4---4---|--6-6-6-6-6-6---|

  F                                 Eb
  +   +   +   +    +   +   +   +    +   +   +   +    +   +   +   + 
G|----10------10--|----10----10----|----------------|----------------|
D|----------------|--10--------10--|----------------|----------------|
A|8-----8-8-----8-|8-------8-------|6-----6-6-6---6-|6--6---6----6-6-|
E|----------------|----------------|----------------|----------------|

  Db                                Ab               
  +   +   +   +    +   +   +   +    +   +   +   +    +   +   +   + 
G|------------6---|----------------|----------------|----------------|
D|----------------|----------------|----------------|----------------|
A|4-----4-4-4---4-|4-4-----4---4-4-|----------------|----------------|
E|----------------|----------------|4-----4-4-----4-|4-4-----4---4---|

  Bb
  +   +   +   +    +   +   +   +    
G|----------------|----------------|
D|----------------|----------------|
A|----------------|----------------|
E|6-----6-6-----6-|6-------6---x6--|

Song estructure:

Verse (x5)
Chorus (x4), last time replace X with Chorus End 1.
Verse (x4)
Chorus (x6), last time replace X with Chorus End 2.
Bridge.
Verse (till end) + 

  Cm            
G|12~-------------|
D|10~-------------|
A|----------------|
E|----------------|

     __   _      __      __      _____   _____   _____
    /  | / |    /  |    /  `\   / ___/  / __ /  (  __/
   /   |/  |   / /||   / /) /  //      / / //   \ \
  / /|   /||  / /^||  / /||   //___   / / //  ___) )
 / / |  / || / /  || / / ||  /    /  /  ^^/  /    / 
 ^^^^^^^^^^^^^^^^^^^^^^^^^^^^^^^^^^^^^^^^^^^^^^^^^
Comments