Red Hot Chili Peppers - Havana Affair Chords & Tabs

 

Havana Affair Chords & Tabs

Red Hot Chili Peppers Chords & Tabs

Version: 1 Type: Bass Tab 0 ratings
1 star 2 stars 3 stars 4 stars 5 stars
comments

Havana Affair Bass Tab

Intro:
|-----------|-----7-------|
|-----9-----|---7-------7-|
|---9---9---|-5-------7---| X2
|-7-------9-|-------5-----|

Verse:
|-----------|-----------|-----------|-------------|
|-----9-----|-----5---5-|-----7-----|-----4---4---|
|---9---9---|---5---5---|---7---7---|---4---4---4-| X2
|-7-------7-|-3---------|-5-------5-|-2-----------|
[ Tab from: http://www.guitartabs.cc/tabs/r/red_hot_chili_peppers/havana_affair_btab.html ]
Chorus:
|-------------|---------|    |---------------|
|-----5---5---|---------|    |---------------|
|---5---5---5-|---------| X2 |---------------| X2
|-3-----------|--2--2~--|    |--7~---3-3-2-2-|

Interlude:
|-------------------|-------------------|
|-------------------|-------------------|
|--------------5--7-|--------------5----| X4
|-5/7-7-7--7-7------|-5/7-7-7--7-7----5-|

End:
|--------|
|--------|
|--------|
|---7~---|


Song Layout:

Intro
Verse
Chorus
Verse
Chorus
Interlude
Verse
Chorus
Interlude
Verse
Chorus
End

Hi, this is my first tab. I'm Rusty.
Comments