Red Hot Chili Peppers - Hard To Concentrate Chords & Tabs

 

Hard To Concentrate Chords & Tabs

Red Hot Chili Peppers Chords & Tabs

Version: 2 Type: Bass Tab

Hard To Concentrate Bass Tab

"Hard to concentrate" by the Red Hot Chili Peppers
From the album "Stadium Arcadium" (Jupiter Disc)
Bassline by Michael Balzary (Flea)
Tabbed by Dan Bogosian (UtBDan)
Visit UtBDan's band's website at:
www.utbrocks.com

VERSE/INTRO:
G---16--14--12--14--12---16--14--12--14--12-|
D-------------------------------------------|
A-------------------------------------------|
E-12--12--12--12--12---12--12--12--12--12---|

G---11-----11-11----11-----11-11-|
D--------------------------------|
A--------------------------------|
E-10--10--7--7----10--10--7--7---|

CHORUS:
G--12----12-12---11------14-12-|
D------------------------------|
A------12-12-------------------|
E-8--8----------10--10--12-----|

G--12----12-12---11------14-12-|
D------------------------------|
A------12-12-------------------|
E-8--8----------10--10--12-----|

G--12----12-12---11------14-12-|
D------------------------------|
A------12-12-------------------|
E-8--8----------10--10--12-----|
[ Tab from: http://www.guitartabs.cc/tabs/r/red_hot_chili_peppers/hard_to_concentrate_btab_ver_2.html ]
G--12----12-12---11-----11--11--11-----11--11-|
D---------------------------------------------|
A------12-12----------------------------------|
E-8--8----------10--10-10--10--10--10-10--10--|

BRIDGE:
G---------------|
D---------------|
A-------10------|
E-8----------10-|

G---------------|
D---------------|
A-------10------|
E-8----------10-|

G--------------|
D--------------|
A-------10-----|
E-8---------10-|

G-----------------------------------------|
D-----------------------------------------|
A-------10--------------------------------|
E-8---------10---88-8-8--88-8--8--88-8--8-|

LAST CHORUS:
G--12----12-12---11------14-12-|
D------------------------------|
A------12-12-------------------|
E-8--8----------10--10--12-----|

G--12----12-12---11------14-12-|
D------------------------------|
A------12-12-------------------|
E-8--8----------10--10--12-----|

G--12----12-12---11------14-12-|
D------------------------------|
A------12-12-------------------|
E-8--8----------10--10--12-----|

G--12----12--12--11-----11--11--11-----11--11-|
D---------------------------------------------|
A------12--12---------------------------------|
E---------------------------------------------|