Red Hot Chili Peppers - Grand Pappy Du Plenty Chords & Tabs

 

Grand Pappy Du Plenty Chords & Tabs

Red Hot Chili Peppers Chords & Tabs

Version: 1 Type: Bass Tab 0 ratings
1 star 2 stars 3 stars 4 stars 5 stars
comments

Grand Pappy Du Plenty Bass Tab

Band: Red Hot Chili Peppers
Song: Grand Pappy Du Plenty
Bass player: Michael "Flea" Balzary

Tabbed by: Ignacio "Coco" Vespoli
E-mail: cocofuhgawz@hotmail.com


Well those are the riffs, if you can play them, you can play the whole song

G|------2~~----|------2~--| 
D|-------------|----------| 
A|-------------|----------| 
E|--2-2--------|--2-2-----|


G|--------------12~~--|--------| 
D|--------------------|-----5--| 
A|--------------------|--------| 
E|-5-x0-x2-x5-x-------|-2-2----| 


G|------------|----------|------------| 
D|------------|----------|------------| 
A|------------|----------|------------| 
E|-5--5--5--5-|-5-5-5--5-|-5--5--2~~--|
[ Tab from: http://www.guitartabs.cc/tabs/r/red_hot_chili_peppers/grand_pappy_du_plenty_btab.html ]
w/ delay 
G|------|------|------|------|-------| 
D|------|------|------|------|-------| 
A|------|------|------|------|-------|  
E|-x-55-|-x-55-|-x-55-|-x-55-|-1~~---|


G|-------------5-------------------------------| 
D|---------------5-----------------------------| 
A|-3~~---------------3--3--3--3--3--3--3--3--3-| 
E|---------------------------------------------|

w/ delay
G|------|------|------|------|------| 
D|------|------|------|------|------| 
A|------|------|------|------|------| 
E|-x-55-|-x-55-|-x-55-|-x-55-|-1~~--|


G|-------------------------------------------|------------| 
D|-------------------------------------------|------------|
A|-3~~-------------3--3--3--3--3--3--3--3--3-|------------| 
E|-------------------------------------------|-3~~--1~~---|

=======================================================================
Comments? You Know what to do!!!
Comments