Red Hot Chili Peppers - Gong Li Chords & Tabs

 

Gong Li Chords & Tabs

Red Hot Chili Peppers Chords & Tabs

Version: 1 Type: Bass Tab 0 ratings
1 star 2 stars 3 stars 4 stars 5 stars
comments

Gong Li Bass Tab

Red Hot Chili Peppers
GONG LI


Named after Chinese actress Gong Li
Off the Californication Australian tour-edition 2nd CD
and Scar Tissue single

verse
|----------------|
|----------------|
|----------------|
|000-------------|

pre-chorus/outro
|----------------|
|----------------|
|--------2---4---|
|000-4-----------|

|----------------|
|-------------22-|
|--------2---4--4|
|000-4-----------|

|----------------|
|----------------|
|--------2---4---|
|000-4-----------|

|----------------|
|-------------2--|
|--------2---4-42|
|000-4-----------|
[ Tab from: http://www.guitartabs.cc/tabs/r/red_hot_chili_peppers/gong_li_btab.html ]
chorus
|----------------|
|--------2-2-22-2|
|4-4-2-2---------|
|----------------|

|----------------|
|----------------|
|2-2-----2-2-2-2-|
|----5-5---------|

ending
|----------------|
|2-2-------------|
|----4-4-2---4-4-|
|----------------|

|----------------|
|2~~~~~~~~~~~~~~~|
|----------------|
|----------------|

Structure
verse x24
pre-chorus x1
chorus x4
verse x16
pre-chorus x1
chorus x4
verse x16
outro x1
ending x1

any criticism's, corrections, updates, etc. E-mail me @
adamdecelis@hotmail.com
PS: can somebody tab "subway to venus" and let me know

tabbed by Adam Decelis
Sydney Australia



Comments