Red Hot Chili Peppers - Give It Away Chords & Tabs

 

Give It Away Chords & Tabs

Red Hot Chili Peppers Chords & Tabs

Version: 8 Type: Tab 0 ratings
1 star 2 stars 3 stars 4 stars 5 stars
comments

Give It Away Tab

G I V E   I T   A W A Y 
Red Hot Chili PePPeRs 
	
[INTRO]

slide guitar part

[VERSE]

e| |---------------------------------------------------------------| |
b|*|--------b-----------------5~---------------------------b-------|*|
g| |--7--6-5'-------------7-8---------7-6-5~-----------7--5'-------| |
D| |----------5-5-7---7-----------7---------5-5-7-------------5----| |
A|*|-----------------(0)-----------------------(0)-----------------|*|
E| |---------------------------------------------------------------| |

[CHORUS]

I donno what it is but i think it's at first some Evii chord (x799xx)
and then a D chord (x77xxx) but it's not the correct way to play it! S.O.S.

[SOLO]
[ Tab from: http://www.guitartabs.cc/tabs/r/red_hot_chili_peppers/give_it_away_tab_ver_8.html ]
I've heard the strange sound is the result of a reversed tape playing
but it's not an excuse because they play the song live


****************************************************************************
		Bass guitar parts by: PePPeRs@aol.com

g-------------12------------------------------------------------------------
d------9\14-----------------------------------------------------------------
a-0-0--------------0-3-0-3--------------------------------------------------
e---------------------------------------------------------------------------

Guitar solo
g---------------------------------------------------------------------------
d---------------------------------------------------------------------------
a-----------10--------------------------------------------------------------
e-0-0\12------0-3-0-3-------------------------------------------------------

Comments