Red Hot Chili Peppers - Give It Away Chords & Tabs

 

Give It Away Chords & Tabs

Red Hot Chili Peppers Chords & Tabs

Version: 7 Type: Tab 0 ratings
1 star 2 stars 3 stars 4 stars 5 stars
comments

Give It Away Tab

#----------------------------------PLEASE NOTE---------------------------------#
#This file is the author's own work and represents their interpretation of the #
#song. You may only use this file for private study, scholarship, or research. #
#------------------------------------------------------------------------------##

Song: Give it Away! (intro only)
Band: The Red Hot chili Peppers
Tabbed by: Leo b.


This song rocks so much!!
I find that every tab out there doesn't even have the intro, so I thougt
I would treat all of you pepper heads!

[ Tab from: http://www.guitartabs.cc/tabs/r/red_hot_chili_peppers/give_it_away_tab_ver_7.html ]
E--------------------------|-----11------11-------11------11-----11-------|
B--------------------13b---|----------------------------------------------|
G--------------------11----|--------11br----11br-----11br----11br----11br-|
D------7---7-7-7-----------|----------------------------------------------|
A------0---0-0-0--0--------|----------------------------------------------|
E--------------------------|----------------------------------------------|

E--------------------------|----------------------------------------------------|
B--------------------13b---|----------------------------------------------------|
G--------------------11----|----------------------------------------------------|
D------7---7-7-7-----------|-----5--5---------5--5-----5---5-----5--5----5--5---|
A------0---0-0-0--0--------|-----------3---3--------4----------4-------4------4-|
E--------------------------|----------------------------------------------------|

 Well that's it for the intro! later

 "I can't tell if I'm a kingpin or a pauper"

 questions? leobarbosa@hotmail.com
Comments