Red Hot Chili Peppers - Give It Away Chords & Tabs

 

Give It Away Chords & Tabs

Red Hot Chili Peppers Chords & Tabs

Version: 4 Type: Tab 1 rating
1 star 2 stars 3 stars 4 stars 5 stars
comments

Give It Away Tab

Red Hot Chili Peppers
Give It Away
Tabbed By James Low whatisaturnip@yahoo.co.uk
Tuning-EADGBE
4/4 92bpm

Intro

  1   2   3   4   5   6   7   8   9   10  11  12  13  14  15  16
------------------------------8-----------------------------------
------------------------------8-----------------------------------
----------------------------11b12---------------------------------
--7-------7---7--7b8--7-------------------------------------------
--0-------0---0---0---0-------------------------------------------
------------------------------------------------------------------

  1   2   3   4   5   6   7   8   9   10  11  12  13  14  15  16
------11----------11----------11----------11----------11----------
------------------------------------------------------------------
----------11b10-------11b10-------11b10-------11b10-------11b10---
------------------------------------------------------------------
------------------------------------------------------------------
------------------------------------------------------------------

  1   2   3   4   5   6   7   8   9   10  11  12  13  14  15  16
------------------------------8-----------------------------------
------------------------------8-----------------------------------
----------------------0-----11b12---------------------------------
--7-------7---7--7b8--0-------------------------------------------
--0-------0---0---0-----------------------------------------------
------------------------------------------------------------------

  1   2   3   4   5   6   7   8   9   10  11  12  13  14  15  16
------------------------------------------------------------------
------------------------------------------------------------------
------------------------------------------------------------------
--13------11--0-----------0-----------0-----------0---------------
--12------10------10----------10----------10----------10----------
--11------9-----------9-----------9-----------9-----------9---9---

Verse
[ Tab from: http://www.guitartabs.cc/tabs/r/red_hot_chili_peppers/give_it_away_tab_ver_4.html ]
 PLAY WITH CD TO GET RHYTHM
------------------------------------------------------------------
------------------------------------------------------------------
-----x-x--7---6---5--------------------------------7---8---9------
--7------------------x-5--5---x----7-----------7------------------
------------------------------------------------------------------
------------------------------------------------------------------

------------------------------------------------------------------
--------------5---5----------------------------------------------- x3
-------x--7---6---5--------------------------------7---5b---------
--7--------------------5-5-7--5----7-----------7-----------5------
--0---------------------------------------------------------------
------------------------------------------------------------------

Chorus

  1   2   3   4   5   6   7   8   9   10  11  12  13  14  15  16
------------------------------------------------------------------
--------------------------------------------------------------5---
----------------------------------------------------------5---5---
----------7---7---7---7---7---7---7---7---7---7---7---7---7-------
--0-------0---0---0---0---0---0---0---0---0---0---0---0-----------
------------------------------------------------------------------

  1   2   3   4   5   6   7   8   9   10  11  12  13  14  15  16
----------------------------------8---8-------x---7-------5-------
----------------------------------5---5-------x---6-------5-------
------------------5b-------------8b9--9-------x---7-------5-------
--7---7---7---7-------7---7---7-----------------------------------
--0---0---0---0-------0---0---0-----------------------------------
------------------------------------------------------------------

  1   2   3   4   5   6   7   8   9   10  11  12  13  14  15  16
------------------------------------------------------------------
------------------------------------------------------------------
------------------------------------------------------------------
--7---7---7---5b--5b--7---7---7---7---7---7---7---7---7---7---7---
--0---0---0-----------0---0---0---0---0---0---0---0---0---0---0---
------------------------------------------------------------------

  1   2   3   4   5   6   7   8   9   10  11  12  13  14  15  16
--------------------------5---5-------5---5---5---5---5---5---5---
----------------------5---5---5---5---5---5---5---5---5---5---5---
------------------7-b-9---9---9--7b9--9---9---9--7b9--9---9---9---
--7---7---7---7---------------------------------------------------
--0---0---0---0---------------------------------------------------
------------------------------------------------------------------

Taken from Total Guitar Issue 86 August 2001
Comments