Red Hot Chili Peppers - Give It Away Chords & Tabs

 

Give It Away Chords & Tabs

Red Hot Chili Peppers Chords & Tabs

Version: 12 Type: Tab 0 ratings
1 star 2 stars 3 stars 4 stars 5 stars
comments

Give It Away Tab

INTRO
E--------------------------|-----11------11-------11------11-----11-------|
B--------------------13----|----------------------------------------------|
G--------------------11b12-|--------11br----11br-----11br----11br----11br-|
D------7---7-7-7-----------|----------------------------------------------|
A------0---0-0-0--0--------|----------------------------------------------|
E--------------------------|----------------------------------------------|

E--------------------------|----------------------------------------------------|
B--------------------13----|----------------------------------------------------|
G--------------------11b12-|----------------------------------------------------|
D------7---7-7-7-----------|-----5--5---------5--5-----5---5-----5--5----5--5---|
A------0---0-0-0--0--------|-----------3---3--------4----------4-------4------4-|
E--------------------------|----------------------------------------------------|

VERSE
e|------------------------|-------------------------|\-------- /
B|------(1/4)-------------|------(1/4)-------(1/4)------------ / \
G|---7-6-5^---------7-8-9-|---7-6-5^--------7-5^----|  \VERSE- / 3X
D|-7-------5-5-7--7-------|-7-------5-5-7-7------5--| -------- /
A|-0----------------------|-0-----------------------|--------- /
E|------------------------|----------------------------------- /

Chorus
e|-------8-8-8^-------------------------------------|
B|-------8-8-8^-------------------------------------|
G|--------------------------------------------------|
D|-7------------7-----------------------------------|
A|-0-x20--------0-until verse starts again----------|
E|--------------------------------------------------|

SOLO 1
e:------------------------------------------------------------|
B:------------------------------------------------------------|
G:--9--9-9-9---7h9--------------11--12----10---------7--------|
D:------------------------------------------------------------|
A:------------------------------------------------------------|
E:------------------------------------------------------------|

e:------------------------------------------------------------|
B:------------------------------------------------------------|
G:--9----9/12--------14-----15-----14-----12-------------14---|
D:------------------------------------------------------------|
A:------------------------------------------------------------|
E:------------------------------------------------------------|
[ Tab from: http://www.guitartabs.cc/tabs/r/red_hot_chili_peppers/give_it_away_tab_ver_12.html ]
e:------------------------------------------------------------|
B:------------------------------14---------------15-----------|
G:--16---15----14-------------------------16------------------|
D:------------------------------------------------------------|
A:------------------------------------------------------------|
E:------------------------------------------------------------|


e:-----------------------------19\\\\\\\\\\\\\\\\\\\\\\\\\\\8---------------|
B:-----14-----15-----17--------19\\\\\\\\\\\\\\\\\\\\\\\\\\\8---------------|
G:-----------------------------19\\\\\\\\\\\\\\\\\\\\\\\\\\\8---------------|
D:--------------------------------------------------------------------------|
A:--------------------------------------------------------------------------|
E:--------------------------------------------------------------------------|

SOLO 2
e:----------------------------------------------------------------|
B:----------------------------------------------------------------|
G:------7-----9---12^14----12/15^17-------14---12h14------9^11----|
D:--9-------------------------------------------------------------|
A:----------------------------------------------------------------|
E:----------------------------------------------------------------|

BRIDGE        4x                      Bridge 2
e|-----------------------------17/20-|--------------------------------10-9-8----10-9--------|
B|------------13---------------17/20-|------------------------------------------------------|
G|------------11b12------------17/20-|------------7-6-5^----7-6-5^----7--6-5----7--6-5^-----|
D|-7-7-7-7----------7-7-7-7----------|------7-x-x---------7---------7---------7-------------|
A|-0-0-0-0-0--------0-0-0-0-0--------|------0-x-x---------0---------0---------0-------------|
E|-----------------------------------|------------------------------------------------------|

OUTRO                         Outro 2
e|---------------------------|------------------------------------------------|
B|---------------------------|------------------------------------------------|
G|-2-2-2-7-6-5-5-5-5-5-5-5-5-|--2-2-2-7-6-5/17-17-17-17-17-17-17-17-17-17\----|
D|-2-2-2-7-6-5-5-5-5-5-5-5-5-|--2-2-2-7-6-5/17-17-17-17-17-17-17-17-17-17\----|
A|-0-0-0---------------------|--0-0-0-----------------------------------------|
E|---------------------------|------------------------------------------------|

Order of Song:

-INTRO
-VERSE (3x)
-CHORUS
-VERSE (3x)
-CHORUS
-SOLO 1
-VERSE (3x)
-SOLO 2
-VERSE (3x)
-BRIDGE (4x)
-BRIDGE 2
-OUTRO(2x)
-OUTRO 2 (2x)
-OUTRO(2x)
Comments