Red Hot Chili Peppers - Give It Away Chords & Tabs

 

Give It Away Chords & Tabs

Red Hot Chili Peppers Chords & Tabs

Version: 11 Type: Tab 0 ratings
1 star 2 stars 3 stars 4 stars 5 stars
comments

Give It Away Tab

Red Hot Chili Peppers, Give It Away.
Tabbed by Jonathan Crawley, heyyo21@hotmail.com.
  
alright...on the solos you're on your own...but this will give you the correct intro...something i haven't seen on the internet yet.  so...good luck!

^=bend up one whole step
/=slide up
\=slide down
part1
--5-5-5/-----8-------11\8-11\8-11\8-11\8-11\8---------
--5-5-5/-----8----------------------------------------
-------------10^--------------------------------------
------------------------------------------------------
------------------------------------------------------

part2
-5-5-5/-----8-----------------------------------------
-5-5-5/-----8-----------------------------------------
------------10^---------------------------------------
------------------------------------------------------
------------------------------------------------------------------------------------------------------------

alright...so there's the intro...most of the other stuff on this site is right(the verse riffs)....
but for the chorus goes something like this
[ Tab from: http://www.guitartabs.cc/tabs/r/red_hot_chili_peppers/give_it_away_tab_ver_11.html ]
(and this is partially an adaption of how john frusciante plays it live)
-----------------8-7-5------------------8-------------
-----------------8-7-5------------------8-------------
-----------------8-7-5------------------10^-----------
-7-7-7-7-5-7-7----------7-7-7-7-5-7-7-----------------
-0-0-0-0-0-0-0----------0-0-0-0-0-0-0-----------------
------------------------------------------------------

on the second chorus, you play this.
  you will hit these two fret positions 
               several times quickly... v    v
-----------------8----------------------17--20--------
-----------------8----------------------17--20--------
-----------------10^--------------------17--20--------
-7-7-7-7-5-7-7----------7-7-7-7-5-7-7-----------------
-0-0-0-0-0-0-0----------0-0-0-0-0-0-0-----------------
------------------------------------------------------

thank you.  i'd do more...but i'm at school now...
so i hope you can use this...and if you use my chorus or intro please credit me. thanks!!
e-mail me at heyyo21@hotmail.com if you'd like.  comments are always welcome(or complaints).  
i'm getting a band together...if you live in virginia...anywhere near southside let me know...
-Jonathan Crawley 
:: Ultimate Guitar Archive :: 
http://www.ultimate-guitar.com 

Comments