Red Hot Chili Peppers - Give It Away Chords & Tabs

 

Give It Away Chords & Tabs

Red Hot Chili Peppers Chords & Tabs

Version: 1 Type: Tab 1 rating
1 star 2 stars 3 stars 4 stars 5 stars
comments

Give It Away Tab

red hot chili peppers

give it away

by joel J.

intro
----------------10----10----10----10----10-----------------------
-------------10----10----10----10----10--------------------------
7-7-7-7-7-----------------------------------7-7-7-7-7---3-4-4-4-4
0-0-0-0-0-----------------------------------0-0-0-0-0--5-5-5-5-5-
-----------------------------------------------------------------
-----------------------------------------------------------------

Verse
-----------------------------------------------------------------
------------------5----------------------------------------------
--7-6-5-------7-8-----7-6-5--------7-5-5-------------------------
7-------5-5-7-------7-------5-5-7-7------------------------------
-----------------------------------------------------------------
-----------------------------------------------------------------
[ Tab from: http://www.guitartabs.cc/tabs/r/red_hot_chili_peppers/give_it_away_tab.html ]
chorus
just keep on doing
-------------
-------------
-----0-------
-----7-------
-------------
-------------
at the last chorus do repeatedly
-------------
-----------------5
-0-0-0-8-0-0-0-8--
-7-7-7---7-7-7----
-------------
-------------
then when saying give it away slowly do
-----------
-----------
--7-6-5----
7----------
-----------
-----------


solo
--------------------------------------------------------------
------------------------------------12----14-12-15-13-14-10-11
11-12----------14-12-14-15-14-12-14----15---------------------
-------14-12-14-----------------------------------------------
--------------------------------------------------------------
--------------------------------------------------------------
play faster at second solo


outro
---------------------
----------0----------
----------7----------        play many times
----------x-----------       
----------9-----------
--------------------- 


 
Comments