Red Hot Chili Peppers - Give It Away Chords & Tabs

 

Give It Away Chords & Tabs

Red Hot Chili Peppers Chords & Tabs

Version: 9 Type: Bass Tab 0 ratings
1 star 2 stars 3 stars 4 stars 5 stars
comments

Give It Away Bass Tab

Verse

G----------12---------------
D-----2/10------------------
A--0----------3-3-0---------
E---------------------------

G----------12---------------
D-----2/10------------------
A--0----------3-0-----------
E---------------------------
[ Tab from: http://www.guitartabs.cc/tabs/r/red_hot_chili_peppers/give_it_away_btab_ver_9.html ]
Chrous

G---------------------------
D---------------------------
A---------------------------
E--3/5\0--------------------

Solo

G---------------------------
D---------------------------
A---------------------------
E--0--3-3--10-12------------
Comments