Red Hot Chili Peppers - Give It Away Chords & Tabs

 

Give It Away Chords & Tabs

Red Hot Chili Peppers Chords & Tabs

Version: 8 Type: Bass Tab 0 ratings
1 star 2 stars 3 stars 4 stars 5 stars
comments

Give It Away Bass Tab

   
RED HOT CHILI PEPPERS           -positive on everything except the opening

-STANDARD TUNING(E,A,D,G)   tabbed by: mikewb013

   opening

  g ---------------------------
  d --------4/12---4/12--------
  a ---------------------------
  e ---------------------------

   verse

- at the beginig of the verse,play this bar once, than alternater bar 1 and 2

  g---------------12-----------
  d----------5/14--------------
  a----------------------------
  e-----5----------------------

[ Tab from: http://www.guitartabs.cc/tabs/r/red_hot_chili_peppers/give_it_away_btab_ver_8.html ]
                             #1
  g------------------12--------
  d--------------5/14----------
  a------3--3------------------
  e----5--5--5-----------------
                                  (alternate #1 and #2)

                             #2
  g-------------------12-------
  d---------------5/14---------
  a------3---------------------
  e----5---5-------------------

  chrous
        
  g----------------------------
  d----------------------------
  a----------------------------
  e---3--5/3-------------------



   thats about it if you got any questions or whatever e-mail me at w.brady@sbcglobal.net
Comments