Red Hot Chili Peppers - Give It Away Chords & Tabs

 

Give It Away Chords & Tabs

Red Hot Chili Peppers Chords & Tabs

Version: 6 Type: Bass Tab 0 ratings
1 star 2 stars 3 stars 4 stars 5 stars
comments

Give It Away Bass Tab

Tabbed by flea1246

Intro
                             T         T
G|---------|-----------|-----------------------|
D|---------|-----------|-----------------------|
A|---------|-----------|-----------------------|
E|---------|-----------|-----5/-17\----5/-17\--|

Verse

G|-----------------12\-------------------|
D|--------x---/14------------------------|
A|---0--------------------x--3----0--3---|
E|---------------------------------------|

Chorus

G|-------------------|-------------------|
D|-------------------|-------------------|
A|------0------------|-------------------|
E|-----------------3-|---5------(5)\-----|

G|-------------------|-------------------|
D|-------------------|-------------------|
A|-------------------|-------------------|
E|----5----(5)\------|-------------------|

Guitar Solo
[ Tab from: http://www.guitartabs.cc/tabs/r/red_hot_chili_peppers/give_it_away_btab_ver_6.html ]
G|---------------------------------------|
D|---------------------------------------|
A|------------------10\------------------|
E|-----0--x--10/12--------0--3-----x---3-|

G|------------------------------------------------|
D|------------------------------------------------|
A|------------------------------------------------|
E|-0--10--0---9--0--7--0--5--0--4--0--3--0--2--0--|

Then chorus again

Out chorus

G|---------|-------------12----14----12----12\----|
D|---------|-----x-12/14----14----14----14--------|
A|---------|--0-----------------------------------|
E|---------|--------------------------------------|

G|---------|--------------12----------------------|
D|---------|-----x--12/14-------7p0--5p0--4p0-----|
A|---------|--0--------------0--------------------|
E|---------|--------------------------------------|

G|---------------12-----------------------|
D|-----X--12/14---------------------------|
A|---0-------------------0--3P0-----------|
E|------------------0--3----------3-------|

Thats it 

any comments e-mail me at (markwalker02@aol.com)
Comments