Red Hot Chili Peppers - Give It Away Chords & Tabs

 

Give It Away Chords & Tabs

Red Hot Chili Peppers Chords & Tabs

Version: 5 Type: Bass Tab 2 ratings
1 star 2 stars 3 stars 4 stars 5 stars
comments

Give It Away Bass Tab

Artist            : Red Hot Chilli Peppers
Album             : Blood Sugar Sex Magik
Song              : Give It Away

Transcribed by    : Reza Farsimadan
Date              : 07-14-2002
E-mail            : rezafarsi@yahoo.fr
URL               : 

Note              : Enjoy you Chilli fans!
Tuning            : Standard


[All verses]
e|-------------------------------------------------------------------------|
B|-------------------------------------------------------------------------|
G|-------------------------------------------------------------------------|
D|--------5/7~-------------------------------------------------------------|
A|-----------------3-------------------------------------------------------|
E|----5------------------5^3^5-----X12-------------------------------------|


[Chorus]
e|-------------------------------------------------------------------------|
B|-------------------------------------------------------------------------|
G|-------------------------------------------------------------------------|
D|-------------------------------------------------------------------------|
A|-------------------------------------------------------------------------|
E|-5~---5^3^5---5^3^5---5^3^5----------------------------------------------|

[ Tab from: http://www.guitartabs.cc/tabs/r/red_hot_chili_peppers/give_it_away_btab_ver_5.html ]
[The 2 solo parts]
e|-------------------------------------------------------------------------|
B|-------------------------------------------------------------------------|
G|-------------------------------------------------------------------------|
D|-------3/5---------------------------------------------------------------|
A|-------------------------------------------------------------------------|
E|---3------------5--3^0^5-----X8------------------------------------------|


[The last part of the song where he sings "give it away, give it away now"  over and over...]
e|-------------------------------------------------------------------------|
B|-------------------------------------------------------------------------|
G|-------------------------------------------------------------------------|
D|----------5/7~----------------------------7b---5-------------5---------5-|
A|---------------------3---------------------------------7---5---------7---|
E|---5------------------------5^3^5---X8-----------------------------------|


[]
e|-------------------------------------------------------------------------|
B|-------------------------------------------------------------------------|
G|-------------------------------------------------------------------------|
D|---------5/7----------------------------------------------------5/7~~~~~-|
A|-----------------3-------------------------------3/5---5/7---------------|
E|--5------------------5^3^5---X15-----3/5---------------------------------|



==========================================================================
 Tab created with Kastor's Guitar Tabulature Manager 3.0 (TabIt Quick 1.0)
          You can get it for FREE from >>www.inet.hr/~kpetak
Comments