Red Hot Chili Peppers - Give It Away Chords & Tabs

 

Give It Away Chords & Tabs

Red Hot Chili Peppers Chords & Tabs

Version: 2 Type: Bass Tab 1 rating
1 star 2 stars 3 stars 4 stars 5 stars
comments

Give It Away Bass Tab

Red Hot Chili Peppers
Song:  Give it Away
Album:  Blood Sugar Sex Magik
Tab correction by:  Stephen Short (sms_stylee@yahoo.com)

The old tab was way off, this sounds a lot better.

Standard Tuning


Intro

G|----------------------------
D|----------------------------
A|----------------------------
E|--/////\\\\\-//////\\\\\\---


Verse Riff
                                                 
G|---|---------------------------------------------|
A|---|-X---------17----------X----------17\\\------|
A|--O|--///////17----X3-X3-O--////////17-----XX3-O-|
E|---|---------------------------------------------|


Chorus Riff

G|-----------------------------------
A|-----------------------------------
A|-----------------------------------
E|--O-5^---------O-5^----------O-5^--

[ Tab from: http://www.guitartabs.cc/tabs/r/red_hot_chili_peppers/give_it_away_btab_ver_2.html ]
Solo 1:  Slap all notes
           X1                  X6                                   X1
G|-------------|------------------|---------------------------------------
A|-------------|------------------|---------------------------------------
A|----------10-|---------------10-|---------------------------------------
E|--3--10h12---|-X3-X3-O--10h12---|-X3-X3--12-O-11-O-10-9-O-8-O-7-O-6-O-5-


Solo 2:  Slap all notes
           X1                 X3                                    X1
G|-------------|------------------|---------------------------------------
A|-------------|------------------|---------------------------------------
A|----------10-|---------------10-|---------------------------------------
E|--3--10h12---|-X3-X3-O--10h12---|-X3-X3--12-O-11-O-10-9-O-8-O-7-O-6-O-5-


Fill 1

G|---------------
D|----19--19--17-
A|--17--17--18---
E|---------------


Fill 2

G|------------
D|------------
A|------7-----
E|--X7-9-9-7--


Song Structure

Intro
Verse Riff X6
Chorus Riff X1
Verse Riff X6
Chorus Riff X1
Drum Break
Bridge 1
Verse Riff X6
Chorus Riff X1
Drum Break
Bridge 2
Verse Riff X6
Verse Riff w/ Fill 1
Verse Riff w/ Fill 2 until

Really funky and fun song to play, have fun.
Visit my band's site at http://syngd.20m.com 

Comments