Red Hot Chili Peppers - Give It Away Chords & Tabs

 

Give It Away Chords & Tabs

Red Hot Chili Peppers Chords & Tabs

Version: 11 Type: Bass Tab

Give It Away Bass Tab

   
Red Hot Chili Peppers - Give it away

bass tab

by : doky 2006
taquilleros_de_sudamerica_maroyu_el_grupo_tropical_del_momento@hotmail.com

4-stringed bass
G D A E 

intro
|---------------|
|---------------|
|---------------|
|-5/17\5-5/17\5-|

verso
|-------------------|
|-------------------|
|--------10---------|
|-5x-5/12---57-57-5-|

coro
|-------|
|-------|
|-------|
|-2/5\0-|

solo de guitarra
|-------------------|
|-------------------|
|--------10-03-03-0-|
|-0x-0/12-----------|

variacion del final (se toca rapido)
|-----------------------------|
|-----------------------------|
|-----------------------------|
|-0-12-0-10-0-8-0-6-0-4-0-3-0-|

verso 2
|--------12---------|
|----3/14-----------|
|-0x--------03-03-0-|
|-------------------|

variacion 1
|-------12-14--12-9-12-9-|
|---3/14-----14----------|
|-0x---------------------|
|------------------------|
[ Tab from: http://www.guitartabs.cc/tabs/r/red_hot_chili_peppers/give_it_away_btab_ver_11.html ]
variacion 2
|-------12-----------|
|---3/14---7--7------|
|-0x-------------6-5-|
|-----------5--5-----|

variacion 3
|-------12--------|
|---3/14----------|
|-0x------3--3----|
|----------5--5-3-|

variacion 4
|-------12-------|
|---3/14----3----|
|-0x------33-5-3-|
|----------------|

fin (se toca rapido)
|------------------------------------------------|
|------------------------------------------------|
|------------------------------------------------|
|-0-5-0-7-0-8-0-9-0-12-0/17-17-17-17-17-17-17-17-|

esta cancion es medio loca tambien, es pues el estilo de los red hot.
mando saludos a toda mi coleccion de monos que tengo y que esta botado junto con mi
bob sponja de piņatas y el corazon-llama que hice, es medio grande. en especial mando
saludos al mono Gonga que es el lider de todos, a la coneja que es sub-jefe, al mono
watts, mona trini, mono mandril, mono goliat, mono sacks, mona kim y a sus demas amigos
entre ellos la oruga y el picapiedra.